Vineyard - As The Deer Chords & Tabs

 

As The Deer Chords & Tabs

Vineyard Chords & Tabs

Version: 1 Type: Tab 0 ratings
1 star 2 stars 3 stars 4 stars 5 stars
comments

As The Deer Tab

   
email: verlonn_v@yahoo.com

Verse:

 C       B/G      Am7                F       G        C

 As the deer….							After thee….
|0---3---3---0---|--------0h1-0-----|5---5---3-----1-|3-------3-------|
|--------------3-|1---1-3-------3-1-|----------0-----|--1---1-----1-3-|
|--0---0---0-----|--0---------------|--2---2-----0---|----0-----0-----|
|----------------|--------2---------|3---------------|----------------|
|3-------2-------|0-----------------|----------------|3-------3-------|
|----------------|------------------|--------3-------|----------------|


 C       B/G      Am7                F       G        C

 You alone….					   Worship thee….
|0---3---3---0---|--------0h1-0-----|------0---------|----------------|
|--------------3-|1---1-3-------3-1-|1-------3-----1-|1-------1-------|
|--0---0---0-----|--0---------------|--2-------0-----|--0---0-------0-|
|----------------|--------2---------|3---3-------0---|----2-------2---|
|3-------2-------|0-----------------|----------------|3-------3-------|
|----------------|------------------|--------3-------|----------------|

Refrain:
[ Tab from: http://www.guitartabs.cc/tabs/v/vineyard/as_the_deer_tab.html ]
 Am               F       C          Am               F       E

 You alone….						      Spirit yield….
|8---8---8---8-7-|5---5---3---------|5---5---5---5-3-|1---1---0----0--|
|----5---5-------|1---1-------------|----5---5-------|----1-------0---|
|--5---5---5-----|--2---2---0-----0-|--5---5---5-----|--2---2----1----|
|7-------7-------|3-----------2h3---|7-------7-------|3---------2-----|
|----------------|--------3---------|----------------|----------------|
|----------------|------------------|----------------|--------0-------|
*you could eliminate the 1 in the b string if your fingers cannot reach the 5 on the e string.


 C       B/G      Am7                F       G        C

 You alone….					   Worship thee….	
|0---3---3---0---|--------0h1-0-----|------0---------|----------------|
|--------------3-|1---1-3-------3-1-|1-------3-----1-|1-------1-------|
|--0---0---0-----|--0---------------|--2-------0-----|--0---0-------0-|
|----------------|--------2---------|3---3-------0---|----2-------2---|
|3-------2-------|0-----------------|----------------|3-------3-------|
|----------------|------------------|--------3-------|----------------|

Comments