Vines - Winning Days Chords & Tabs

 

Winning Days Chords & Tabs

Vines Chords & Tabs

Version: 3 Type: Tab 0 ratings
1 star 2 stars 3 stars 4 stars 5 stars
comments

Winning Days Tab

This is a slight correction to the solo:

p = pull off
h = hammer on

e|--0-----------------------------------------------------------------------|
B|-----3--1-1--0--1--3--1--0-0-----0--3--1--0-0-----0--1--0-----------------|
G|------------------------------2----------------2-----------2-2--0--2------|
D|--------------------------------------------------------------------------|
A|--------------------------------------------------------------------------|
E|--------------------------------------------------------------------------|
[ Tab from: http://www.guitartabs.cc/tabs/v/vines/winning_days_tab_ver_3.html ]
e|--0-----------------------------------------------------------------------|
B|-----3--1-1--0--1--3--1--0-0-----0--3--1--1p0h1h0-------------------------|
G|------------------------------2--------------------2--0-2-----------------|
D|--------------------------------------------------------------------------|
A|--------------------------------------------------------------------------|
E|--------------------------------------------------------------------------|

e|--------------------------------------------------------------------------|
B|--------------------------------------------------------------------------|
G|----2p0h2p0h2--0--0---2p0h2p0h2--0--0---2p0h2p0h2--0--0--2p0h2p0h2--0-----|
D|--------------------------------------------------------------------------|
A|--------------------------------------------------------------------------|
E|--------------------------------------------------------------------------|

e|--0-----------------------------------------------------------------------|
B|-----3--1-1--0--1--3--1--0-0-----0--3--1--1p0h1p0-------------------------|
G|------------------------------2--------------------0----------------------|
D|--------------------------------------------------------------------------|
A|--------------------------------------------------------------------------|
E|--------------------------------------------------------------------------|
Comments