Vines - Winning Days Chords & Tabs

 

Winning Days Chords & Tabs

Vines Chords & Tabs

Version: 1 Type: Chords 0 ratings
1 star 2 stars 3 stars 4 stars 5 stars
comments

Winning Days Chords

   
-------------------------------------------------------------------------------
			     Winning Days - The Vines
-------------------------------------------------------------------------------
Tabbed by:Rock_doll101 (My first ever tab~~~EnJoY~~~Craig is HoT!)

Tuning: standard

{VERSE}
    F                C
The winning days are gone
          G                  Am
because i know just what I'm seeing
    F            C           G     
Was given eyes i know, i can hear.
      F                  C
'Cause underneath there's gold 
          G             Am
i need to get around to find it
    F              C          G     
And when i want to go, i can dream.

          F
I've been tryin'
       C                        Am
All my time, I'm just seeing it rise
                       E
'Cause it could be the land that's over me
          F            G
so i just wanna let it breathe.

{repeat VERSE}

{SOLO}
e|--0------------------------------------------------------------------------|
B|-----3--1-1--0--1--3--1--0-0-----0--3--1--0-0-----0--1--0------------------|
G|------------------------------2----------------2-----------2-2--0--2-------|
D|---------------------------------------------------------------------------|
A|---------------------------------------------------------------------------|
E|---------------------------------------------------------------------------|
[ Tab from: http://www.guitartabs.cc/tabs/v/vines/winning_days_crd.html ]
e|--0------------------------------------------------------------------------|
B|-----3--1-1--0--1--3--1--0-0-----0--3--1--1-0-1-0--------------------------|
G|------------------------------2--------------------2--0-2------------------|
D|---------------------------------------------------------------------------|
A|---------------------------------------------------------------------------|
E|---------------------------------------------------------------------------|

e|---------------------------------------------------------------------------|
B|---------------------------------------------------------------------------|
G|--2-2-2-2-2--0--0--2-2-2-2-2--0--0--2-2-2-2-2--0--0--2-2-2-2-2--0----------|
D|---------------------------------------------------------------------------|
A|---------------------------------------------------------------------------|
E|---------------------------------------------------------------------------|

e|--0------------------------------------------------------------------------|
B|-----3--1-1--0--1--3--1--0-0-----0--3--1--1-0-1-0--------------------------|
G|------------------------------2--------------------0-----------------------|
D|---------------------------------------------------------------------------|
A|---------------------------------------------------------------------------|
E|---------------------------------------------------------------------------|

          F
I've been tryin'
       C                        Am
All my time, I'm just seeing it rise
                       E
'Cause it could be the land that's over me
          F            G           C
so i just wanna let it breathe for now.

C             G              Am               F
Get up and go outside It can help your mind to
    C             G
Get up don't hide away.
       F                 C
'Cause i know where they go, 
              G               Am
I've seen you down when i was flying
    F              C             G
I'm sinking like a stone I can't breathe
          F         C
I've been trying.
Comments