Vines - The Factory Chords & Tabs

 

The Factory Chords & Tabs

Vines Chords & Tabs

Version: 1 Type: Bass Tab 0 ratings
1 star 2 stars 3 stars 4 stars 5 stars
comments

The Factory Bass Tab

#----------------------------------PLEASE NOTE---------------------------------#
#This file is the author's own work and represents their interpretation of the #
#song. You may only use this file for private study, scholarship, or research. #
#------------------------------------------------------------------------------#
ok this wont be exactly accurate but it sounds ok
Tabber: Unkn0wn_421
Intro

G|-000------------|-
D|----024520- (X3)|
A|----------------|
E|--/////\\\\-----|

Verse Riff
                                                 
G|--0-------|--000---------|-000----------------|
A|---025020-|-----024520---|----024500 (X2)-----|
A|----------|--------------|--------------------|
E|----------|--------------|--------------------|

G|------020---------------------------20--|
A|-004------40--0---0----020--0-----5---0-|
A|---------------323-32------3-3-234------|
E|----------------------------------------|

G|-000-------|--0-------|-000------------|
A|----024520-|---0250250|-----024520-(X2)|
A|-----------|----------|----------------|
E|-----------|----------|----------------|

G|-----020-------------------------20 ----|
A|--004---400---0-----020--0-----5----0---|
A|-----------323-32-------3-3-234---------|
E|----------------------------------------|

G|--0---0---0---0--0000000----|
A|----------------------------|
A|----------------------------|
E|----------------------------|
Chorus (ohh hey...)
G|-------------------22202022202 (X2)|-3330-0-|
A|--20202---025-202-----------------|-----3--|
A|---------3------------------------|--------|
E|----------------------------------|--------|
second riff
G|-000------------|
A|----024520(x3)--|
A|----------------|
E|----------------|

G|--00--00--00--|-000------------|
A|---02--02---0-|----024520 (x2)-|
A|--------------|----------------|
E|--------------|----------------|

G|------020---------------------------|
A|--004-----400---0-----020--0------5-|
A|-------------323-32-------3-3-234---|
E|------------------------------------|
[ Tab from: http://www.guitartabs.cc/tabs/v/vines/the_factory_btab.html ]
G|-20----000--------0-----0-0-0-0-000-----|Something like that)
A|---0------024520----02------------------|
A|----------------------------------------|
E|----------------------------------------|

G|-00---00----00---0--0--|
A|---02----02---02--02---|
A|-----------------------|
E|-----------------------|

G|-----2-------2-----2--020-----|
A|-00-4---00-4---004--------0---|
A|------------------------------|
E|------------------------------|

G|---------------------|
A|-020--0--------------|
A|-----3-3---232--203--|
E|---------------------|

G|--0-0-0-0-0000000----|
A|---------------------|
A|---------------------|
E|---------------------|

chorus
G|---------------2220202222-(X2)|-330-3-|
A|-20202--025202----------------|----0--|
A|-------3----------------------|-------|
E|------------------------------|-------|
guitar solo
G|-000-----0------|----297------|
A|-----202--0-(X2)|-04-----(X2)-|
A|----------------|-------------|
E|----------------|-------------|

G|--------------------------0-020-|
A|-000----------------020----0----|
A|----333-222-000---2-----2-------|
E|----------------3---------------|

G|-00----00---00---0--0--|
A|---22----22---22--02---|
A|-----------------------|
E|-----------------------|

G|----2-----2----2--020--|
A|-004--004---004------0-|
A|-----------------------|
E|-----------------------|

G|------------------0-0-0-0-0-0--|
A|-020--0------203---------------|
A|-----3-3-233-------------------|
E|-------------------------------|
chorus
G|---------------22202022022-(X2)|-330-3-|
A|-20202--025202----------------|----0---|
A|-------3----------------------|--------|
E|------------------------------|--------|
end of song
G|-000------------|
A|----024520(x4)--|
A|----------------|
E|----------------|

G|-000----0------|000--0------|
A|----02----240--|---02-20----|
A|--------------2|--------20--|
E|---------------|----------3-|


there might be some mistakes but other then that its pretty accurate theres somethings that pat does that i couldnt really tab down all you have to do is listen to it



please feel freee to chainbe mistakes
Comments