Vines - Sunshinin Chords & Tabs

 

Sunshinin Chords & Tabs

Vines Chords & Tabs

Version: 1 Type: Tab 0 ratings
1 star 2 stars 3 stars 4 stars 5 stars
comments

Sunshinin Tab

   
The Vines - Sunshinin'
Submitted By: Daniel Taylor
EMail: danielt88@hotmail.com


Tuning: Standard (E A D G B E)

Intro/Verses

E|----------------------------------------------------------||
B|-------------3-----------------------------3--------------||
G|------4--------------4-----4--------4------------4-----4--||
D|---2------2-------2-----2--------2-----2------2-----2-----||
A|----------------------------------------------------------||
E|----------------------------------------------------------||

E|----------------------------------------------------------||
B|-------------3-----------------------------3--------------||
G|------4--------------4-----4--------4------------4-----4--||
D|---2------2-------2-----2--------2-----2------2-----2-----||
A|----------------------------------------------------------||
E|----------------------------------------------------------||

E|--------------------------------------------------------||
B|-----------------------------------------3--------------||
G|-------------0---------------------4-----------4-----4--||
D|------2--------------2-----2----2-----2-----2-----2-----||
A|---0-----0--------0-----0-------------------------------||
E|--------------------------------------------------------||

Chorus

E|--------------------------------------------------------||
B|--------------------------------------------------------||
G|--------------3------------------------3----------------||
D|------4----------4-----4--------4---------4-----4-------||
A|---4-----4----------4--------4-----4---------4----------||
E|--------------------------------------------------------||

[ Tab from: http://www.guitartabs.cc/tabs/v/vines/sunshinin_tab.html ]
E|----------------------------------------------------------||
B|-------------3-----------------------------3--------------||
G|------4--------------4-----4--------4------------4-----4--||
D|---2------2-------2-----2--------2-----2------2-----2-----||
A|----------------------------------------------------------||
E|----------------------------------------------------------||

E|--------------------------------------------------------||
B|--------------------------------------------------------||
G|--------------3------------------------3----------------||
D|------4----------4-----4--------4---------4-----0--2----||
A|---4-----4----------4--------4-----4---------4----------||
E|--------------------------------------------------------||

Solo

E|---------------------------------------------------------------------------||
B|------------------12-------------------------------------------------------||
G|--------------12------12---------------------------------------------------||
D|--14--14--14--------------14--12--------------------12----14^---0----------||
A|------------------------------------14----12---14---------------------14---||
E|---------------------------------------------------------------------------||

E|---------------------------------------------------------------------------||
B|---------------------------------------------------------------------------||
G|--13---13^--13^--13^--13^--13^--13^--13^--13^--13^---12-----------13-------||
D|---------------------------------------------------------14--12------------||
A|---------------------------------------------------------------------------||
E|---------------------------------------------------------------------------||

E|---------------------------------------------------------------------------||
B|---------------------------------------------------------------------------||
G|--13---13^--13^--13^--13^--13^--13^--13^--13^--13^---12--------------------||
D|---------------------------------------------------------14--12------------||
A|-------------------------------------------------------------------12------||
E|---------------------------------------------------------------------------||

E|--------------------------------||
B|--------------------------------||
G|--------------------------------||
D|--------------------------------||
A|--12^---12^--12--10-------------||
E|---------------------12--10-----||
Comments