Vines - Ride Chords & Tabs

 

Ride Chords & Tabs

Vines Chords & Tabs

Version: 6 Type: Tab 0 ratings
1 star 2 stars 3 stars 4 stars 5 stars
comments

Ride Tab

   
----------------------------------------------------------------------- 
                            RIDE - The Vines
-----------------------------------------------------------------------
Tabbed by: Pascal M Frenette
Email: ludohvik@msn.com

Tuning : EADGBe (Standard)
     C#  E   F#  G   A   E   F#  G   A
e|----------------------------------------| 
b|----------------------------------------| 
g|---6---9---11--12--2--------------------| 
d|---6---9---11--12--2---2---4---5---7----| 
a|---4---7---9---10--0---2---4---5---7----|
e|-----------------------0---2---3---5----|

This is the new The Vines song, pretty good. 
I wrote down the way I play this song, 
but you can also play it with the other set of chords if you like.
I added both up there, so do as you please.
There's 2 guitars playing each way anyway.
It sound good on an acoustic, but I can't really tab the solo 
so you'll have to play around.


Intro / Verse
e|------------------------------| 
B|------------------------------|
G|-6-6-x-x-6-6-x-x-6-6-9-x-1111-| 
D|-6-6-x-x-6-6-x-x-6-6-9-x-1111-| x4
A|-4-4-x-x-4-4-x-x-4-4-7-x-9-9--| 
E|------------------------------|

Chorus
e|--------------------------------------------------| 
B|--------------------------------------------------|
G|-6-6---------6-6---------6-6----------------------| 
D|-6-6-7-7-7-7-6-6-7-7-7-7-6-6-7-7-7-7-2-2-2-4--4-4-| x4
A|-4-4-7-7-7-7-4-4-7-7-7-7-4-4-7-7-7-7-2-2-2-4--4-4-| 
E|-----5-5-5-5-----5-5-5-5-----5-5-5-5-0-0-0-2--2-2-|
[ Tab from: http://www.guitartabs.cc/tabs/v/vines/ride_tab_ver_6.html ]
Post-Chorus 1
e|------------------------------|     e|-------------| 
B|------------------------------|     B|-------------|
G|-6-6-----6-6-----6-6----------| x4  G|.-6-6-12-12-.|
D|-6-6-5-5-6-6-5-5-6-6-5-5-2-4~-| OR  D|.-6-6-12-10-.|
A|-4-4-5-5-4-4-5-5-4-4-5-5-2-4~-|     A|--4-4-10-10--|
E|-----3-3-----3-3-----3-3-0-2~-|     E|-------------|

Bridge
e|-----------------------------------------------------------------|
B|-----------------------------------------------------------------|
G|-----------------------------------------------------------------|
D|-7-7-7-7-5-5-5-5-4-4-4-4-4-4-4-4-7-7-7-7-5-5-5-5-----------------|
A|-7-7-7-7-5-5-5-5-4-4-4-4-4-4-4-4-7-7-7-7-5-5-5-5-4444444444444444|
E|-5-5-5-5-3-3-3-3-2-2-2-2-2-2-2-2-5-5-5-5-3-3-3-3-2222222222222222|
                                                  (   Palm Mute    )
Solo (not really right, just play around that...)
e|------------------------------------------------------------|
B|------------------------------------------------------------|
G|---6^-6^-6^-6^-9^-9^-9^-9^-13^-13^-13^-13^-xxxxxxxxxxxxxxxx-| 
D|------------------------------------------------------------|
A|------------------------------------------------------------|
E|------------------------------------------------------------|

Lyrics 
---------------
Intro
Verse
That's the start, the middle, and the end
Aren't you glad the universe pretends
If I don't get this message home
Once again I'm gonna head along 

Chorus
Ride with me
Ride with me
Ride with me home
Ride with me
Ride with me
Ride with me unless you 

Verse
Thought a lot ignored the right to be
Lie me down because we like to see
The colours through your loaded mind
Climb the walls and liberate our time 

Chorus
Ride with me
Ride with me
Ride with me home
Ride with me
Ride with me
Ride with me home 

Bridge
I'm not waiting alone
I'm not waiting alone 

Solo
Verse

Chorus
Ride with me
Ride with me
Ride with me home
Ride with me
Ride with me
Ride with me home 

End on Two C#.
Comments