Vines - Ride Chords & Tabs

 

Ride Chords & Tabs

Vines Chords & Tabs

Version: 5 Type: Tab 1 rating
1 star 2 stars 3 stars 4 stars 5 stars
comments

Ride Tab

   
the vines
ride
from "winning days" 2004

intro/verse (clean)

e--------------------------------------
b--6-6-x-x-6-6-x-x-6-6-x-9-x-11-11-11--
g--6-6-x-x-6-6-x-x-6-6-x-9-x-11-11-11--
d--6-6-x-x-6-6-x-x-6-6-x-9-x-11-11-11--
a--4-4-x-x-4-4-x-x-4-4-x-7-x--9--9--9--
e--------------------------------------

chorus (distorted)

e-------------------------------------------------------------------
b-------------------------------------------------------------------
g--6-6-x-2~~~2-2-2-6-6-x-2~~~2-2-2-6-6-x-2~~~2-2-2------------------
d--6-6-x-2~~~2-2-2-6-6-x-2~~~2-2-2-6-6-x-2~~~2-2-2-2-2-x-4~~~4-4-4--
a--4-4-x-0~~~0-0-0-4-4-x-0~~~0-0-0-4-4-x-0~~~0-0-0-2-2-x-4~~~4-4-4--
e--------------------------------------------------0-0-x-2~~~2-2-2--

after chorus (distorted)

e-----------------------------------
b-----------------------------------
g--6-6-----6-6-----6-6--------------
d--6-6-5-5-6-6-5-5-6-6-5-2~~~4~~~~~~
a--4-4-----4-4-----4-4---2~~~4~~~~~~
e------------------------0~~~2~~~~~~

verse (clean)

e--------------------------------------
b--6-6-x-x-6-6-x-x-6-6-x-9-x-11-11-11--
g--6-6-x-x-6-6-x-x-6-6-x-9-x-11-11-11--
d--6-6-x-x-6-6-x-x-6-6-x-9-x-11-11-11--
a--4-4-x-x-4-4-x-x-4-4-x-7-x--9--9--9--
e--------------------------------------

chorus (distorted)

e-------------------------------------------------------------------
b-------------------------------------------------------------------
g--6-6-x-2~~~2-2-2-6-6-x-2~~~2-2-2-6-6-x-2~~~2-2-2------------------
d--6-6-x-2~~~2-2-2-6-6-x-2~~~2-2-2-6-6-x-2~~~2-2-2-2-2-x-4~~~4-4-4--
a--4-4-x-0~~~0-0-0-4-4-x-0~~~0-0-0-4-4-x-0~~~0-0-0-2-2-x-4~~~4-4-4--
e--------------------------------------------------0-0-x-2~~~2-2-2--

bridge (distorted)

e------------------------------------------------------------------
b------------------------------------------------------------------
g------------------------------------------------------------------
d--7---7---7---7---5---5---5---5---4---4---4---4---4---4---4---4---
a--7---7---7---7---5---5---5---5---4---4---4---4---4---4---4---4---
e--5---5---5---5---3---3---3---3---2---2---2---2---2---2---2---2---
[ Tab from: http://www.guitartabs.cc/tabs/v/vines/ride_tab_ver_5.html ]
                                 p.m.______________________________
e------------------------------------------------------------------
b------------------------------------------------------------------
g------------------------------------------------------------------
d--7---7---7---7---5---5---5---5---4-4-4-4-4-4-4-4-4-4-4-4-4-4-4-4-
a--7---7---7---7---5---5---5---5---4-4-4-4-4-4-4-4-4-4-4-4-4-4-4-4-
e--5---5---5---5---3---3---3---3---2-2-2-2-2-2-2-2-2-2-2-2-2-2-2-2-

solo (both guitars distorted)

rhythm guitar

e-----------------------------------
b-----------------------------------
g--6-6-----6-6-----6-6--------------
d--6-6-5-5-6-6-5-5-6-6-5-2~~~4~~~~~~
a--4-4-----4-4-----4-4---2~~~4~~~~~~
e------------------------0~~~2~~~~~~

lead guitar

e-------------------------------------------------------------
b-------------------------------------------------------------
g--6b-6b-6b-6b-6b-6b-6b-6b-9b-9b-9b-9b-9h10p9h10p9h10p9h10p9--
d-------------------------------------------------------------
a-------------------------------------------------------------
e-------------------------------------------------------------

e----------------------------------------------------------------------------
b----------------------------------------------------------------------------
g--12b-12b-12b-12b-12b-12b-12b-12b-20-20-20-20-20-20-20-20-20-20-20-20-20-20-
d----------------------------------------------------------------------------
a----------------------------------------------------------------------------
e----------------------------------------------------------------------------

interlude (clean)

e--------------------------------------
b--6-6-x-x-6-6-x-x-6-6-x-9-x-11-11-11--
g--6-6-x-x-6-6-x-x-6-6-x-9-x-11-11-11--
d--6-6-x-x-6-6-x-x-6-6-x-9-x-11-11-11--
a--4-4-x-x-4-4-x-x-4-4-x-7-x--9--9--9--
e--------------------------------------

chorus (distorted)

e-------------------------------------------------------------------
b-------------------------------------------------------------------
g--6-6-x-2~~~2-2-2-6-6-x-2~~~2-2-2-6-6-x-2~~~2-2-2------------------
d--6-6-x-2~~~2-2-2-6-6-x-2~~~2-2-2-6-6-x-2~~~2-2-2-2-2-x-4~~~4-4-4--
a--4-4-x-0~~~0-0-0-4-4-x-0~~~0-0-0-4-4-x-0~~~0-0-0-2-2-x-4~~~4-4-4--
e--------------------------------------------------0-0-x-2~~~2-2-2--

outro

e-------
b--6-6--
g--6-6--
d--6-6--
a--4-4--
e-------

legend
x mute
~ let it ring
h hammer on
p pull off
b bend
p.m. palm mute

I'm not sure if this is 100% correct, but it's pretty *** close, and I know I'm missing the second guitar part for the bridge, I haven't figured it out yet, lol, oh well, enjoy
Comments