Vines - Ride Chords & Tabs

 

Ride Chords & Tabs

Vines Chords & Tabs

Version: 3 Type: Tab 0 ratings
1 star 2 stars 3 stars 4 stars 5 stars
comments

Ride Tab

   
#----------------------------------PLEASE NOTE---------------------------------#
#This file is the author's own work and represents their interpretation of the #
#song. You may only use this file for private study, scholarship, or research. #
#------------------------------------------------------------------------------#

Artist: The Vines
Album: Winning Days
Song: Ride

Tabbed by: Chris Dolci 

Okay, I'm seriously liking this song...
anybody catch the vines in NYC last night?  
(bitdivided@optonline.com 3/17/04)

 intro & riff (clean)
 intro 4x, then same riff for 1st, 2nd, 3rd verse 

   C#                   E F# 
----------------------------------------
--6-6-x-x-6-6-x-x-6-6-x-9-11-11-11-----
--6-6-x-x-6-6-x-x-6-6-x-9-11-11-11-----
--6-6-x-x-6-6-x-x-6-6-x-9-11-11-11-----
--4-4-x-x-4-4-x-x-4-4-x-7-9--9--9------
----------------------------------------

 riff...................................

ahhh
that's the start t

 chorus (dist)         chords: C#  A  E  F#
                       ---------4--5--0--2---
C#   A                 ---------6--5--0--2---
ride with me           ---------6--6--1--3---
                       ---------6--7--2--4---
                       ---------4--7--2--4---
                       ------------5-----2---
E   F#
home

C#   A
ride with me
E   F#
oh-yeah-yeah

[ Tab from: http://www.guitartabs.cc/tabs/v/vines/ride_tab_ver_3.html ]
 fill 4x (wah-wah)                E  F#
----------------------------------0--2--2-----
----------------------------------0--2--2-----
----------------------------------1--3--3-----
---1-1--0-0--1-1--0-0--1-1--0-----2--4--4-----
----------------------------------2--4--4-----
-------------------------------------2--2-----


 riff...............................
thought alot 


chorus

C#   A
ride with me X3
E   F#
home


 bridge 2x

i'm not waiting alone        
  
   A           G            F#               F# F# G G G# G# (1st time) 
---5-5---------3-3----------2--2 ----------|-2-----3---4------
---5-5---------3-3----------2--2-----------|-2-----3---4------
---6-6-6-7-6---4-4-4-5-4----3--3-3-4-3-----|-3-----4---5------
---7-7-------7-5-5-------5--4--4--------4--|-4-----5---6------
---7-7---------5-5----------4--4-----------|-4-----5---6------
---5-7---------3-3----------2--2-----------|-2-----3---4------


 2nd time, plam mute F# up to 
 
 Guitar 1: Solo ..............................
 Guitar 2: fill ..............................

 fill    4x (wah-wah)             E  F#
----------------------------------0--2--2-----
----------------------------------0--2--2-----
----------------------------------1--3--3-----
---1-1--0-0--1-1--0-0--1-1--0-----2--4--4-----
----------------------------------2--4--4-----
-------------------------------------2--2-----


 riff

   C#                   E F#  
----------------------------------------
--6-6-x-x-6-6-x-x-6-6-x-9-11-11-11-----
--6-6-x-x-6-6-x-x-6-6-x-9-11-11-11-----
--6-6-x-x-6-6-x-x-6-6-x-9-11-11-11-----
--4-4-x-x-4-4-x-x-4-4-x-7-9--9--9------
----------------------------------------
Comments