Vines - Ride Chords & Tabs

 

Ride Chords & Tabs

Vines Chords & Tabs

Version: 2 Type: Tab 1 rating
1 star 2 stars 3 stars 4 stars 5 stars
comments

Ride Tab

   
Song: Ride
Artist: The Vines
Submitted by: Martin Engel   Vivalavictoria@web.de

Intro and Verse: (clean)
G|-6-6-x-x-6-6-x-x-6-6-6-9-9-11-11-x-|
D|-6-6-x-x-6-6-x-x-6-6-6-9-9-11-11-x-|  4 times intro 4 times verse
A|-4-4-x-x-4-4-x-x-4-4-4-7-7-9--9--x-|
E|-----------------------------------|


Chorus: (Disortion)
G|-6-6-6-------6-6-6-------6-6-6-------------------|
D|-6-6-6-7-7-7-6-6-6-7-7-7-6-6-6-7-7-7-2-2-2-4-4-4-|    2 times   
A|-4-4-4-7-7-7-4-4-4-7-7-7-4-4-4-7-7-7-2-2-2-4-4-4-|
E|-------5-5-5-------5-5-5-------5-5-5-0-0-0-2-2-2-|
[ Tab from: http://www.guitartabs.cc/tabs/v/vines/ride_tab_ver_2.html ]
Interlude: (Disortion)
G|--66-22-66-22-666-----|
D|--66-22-66-22-666-2-4-|      4 times
A|--44-00-44-00-444-2-4-|
E|------------------0-2-|

Verse...
Chorus...

Break: (light disordet) one time
G|--66-6666-----------------------------------------------------------------|
D|--66-6666-77-7777-55-5555-44-4444----77-7777-55-5555-44--4444444444444444-|
A|--44-4444-77-7777-55-5555-44-4444----77-7777-55-5555-44--4444444444444444-|
E|----------55-5555-33-3333-22-2222----55-5555-33-3333-22--2222222222222222-|

"Solo"
G|---5^-5^-5^-5^-5^-5^-5^-5^-9^-9^-9^-9^-9^-9^-9^-9^-9^-12^-12^-12^-12^-12^-12^-12^-12^-|

Thats it! 10000000% accurate =)
Comments