Vines - Outtathaway! Chords & Tabs

 

Outtathaway! Chords & Tabs

Vines Chords & Tabs

Version: 3 Type: Tab 0 ratings
1 star 2 stars 3 stars 4 stars 5 stars
comments

Outtathaway! Tab

ok this is the intro song of the vines i just want to say enjoy
cause this is the original version so see ya stupid

6------------------------------------------------------------------------------
5------------------------------------------------------------------------------
4------------------------------------------------------------------------------
3-4pich---------4pich-----------4pich-----------4pich--------------------------
2------------------------------------------------------------------------------
1------------------------------------------------------------------------------
[ Tab from: http://www.guitartabs.cc/tabs/v/vines/outtathaway_tab_ver_3.html ]
6--5-5-x-x-x-3-5-5-x-x------------------------------------
5--7-7-x-x-x-5-7-7-x-x--3-3-3-3---------------------------     this is for 4 
4--7-7-x-x-x-5-7-7-x-x--5-5-5-5---------------------------      times
3--6-6-x-x-x-4-6-6-x-x--5-5-5-5---------------------------
2---------------------------------------------------------
1---------------------------------------------------------

repit the verse in the intro but its only that

6--3-3-1-3-3-x-x--------------
5--5-5-3-5-5-x-x-1-3-3--------
4--5-5-3-5-5-x-x-1-3-3--------
3--4-4-2-4-4-x-x-1-3-3--------
2-----------------------------
1-----------------------------
Comments