Vines - Outtathaway! Chords & Tabs

 

Outtathaway! Chords & Tabs

Vines Chords & Tabs

Version: 2 Type: Tab 0 ratings
1 star 2 stars 3 stars 4 stars 5 stars
comments

Outtathaway! Tab

"Outtathaway" by The Vines

Tabbed by jonny clapham

x=scratch
/=slide

Standard Tuning


Intro-just get a lot of feed back and scratch a little and do a couple
of slides, hit some open strings

Verse1                                  Verse2                                    
e|-------------------------------------|-------------------------------------|
B|-------------------------------5-5-5-|------------------------------3-3-3--|
G|--6--6-x-x-x--4-4-x-6--6-6-x-x-5-5-5-|-4--4-x-x-x--2-2-x-4--4-4-x-x-3-3-3--|
D|--7--7-x-x-x--5-5-x-7--7-7-x-x-5-5-5-|-5--5-x-x-x--3-3-x-5--5-5-x-x-3-3-3--|
A|--7--7-x-x-x--5-5-x-7--7-7-x-x-3-3-3-|-5--5-x-x-x--3-3-x-5--5-5-x-x-1-1-1--|
E|--5--5-x-x-x--3-3-x-5--5-5-x-x-------|-3--3-x-x-x--1-1-x-3--3-3-x-x--------|
   "I get.."

Chorus
e|--------------------------------------------------------|
B|----------------5-5-5--------4-4-4-4-4-4--7-7-7-5-5-5---|
G|-6-6-6-6-6-6-6--5-5-5-4-4-4--4-4-4-4-4-4--7-7-7-5-5-5---|
D|-7-7-7-7-7-7-7--5-5-5-5-5-5--4-4-4-4-4-4--7-7-7-5-5-5---|
A|-7-7-7-7-7-7-7--3-3-3-5-5-5--2-2-2-2-2-2--5-5-5-3-3-3---|
E|-5-5-5-5-5-5-5--------3-3-3-----------------------------|
  "gottagetouttathaway..."

Solo
e|-------------------------------------------------------------------
B|-------------------------------------------------------------------
G|-------------------------------------------------------------------
D|----6/7-5-----------------------6/7-5----------------------5/7--5--
A|----------7-5/3-3-0-3-5-5/7----------7-5--3-3-0-3-5-5/7------------
E|-5----------------------------5--------------------------3---------
[ Tab from: http://www.guitartabs.cc/tabs/v/vines/outtathaway_tab_ver_2.html ]
e|-------------------------------------------------------------------
B|-------------------------------------------------------------------
G|----------------------------------------------------7-5-----------5
D|-----------------------6/7-5---------------------------7-5---5h7---
A|-7-5/3-3-0-3-5-5/7-----------7-5--3-3-0-3-5-5/7------------7-------
E|--------------------5----------------------------5-----------------

e|------------------------------------------------------------------------
B|------------------------------------------------------------------------
G|-7-7b-5--------7-5------------5-7/9-9b-9b--9-8-7-9-8-7-9-8-7-9-8-7-9-8-7
D|--------7-5---------7-5--5-7--------------------------------------------
A|------------7-----------------------------------------------------------
E|------------------------------------------------------------------------

e|--------------------------------------------------------------------
B|--------------------------------------------------------------------
G|-5----------------------------------------------------6--6fb-6p0----
D|---7-5------------------------------------------------7-------------
A|-------7-5/3-3-3-0-3-5/7---------the bass plays-------7-------------
E|-------------------------5~~~----------chorus 1 1/2x--5-------------


OUTRO
e|--------------------------------------------------------------------
B|--------------------------------------------------------------------
G|-6--6-x-x-x-4-4-x-x-6~----------------------------------------------
D|-7--7-x-x-x-5-5-x-x-7~----------------------------------------------
A|-7--7-x-x-x-5-5-x-x-7~----------------------------------------------
E|-5--5-x-x-x-3-3-x-x-5~----------------------------------------------

here it is in order

intro.....1x
verse1....6x
verse2....1x
verse1....1x
chorus....1x
verse1....2x
verse2....1x
verse1....1x
verse1....2x
verse2....1x
verse1....1x
Chorus....1x
Solo......1x
Chorus....2x ALL DOWN STROKES
Chorus....5x
Outro.....1x
Comments