Vines - Mary Jane Chords & Tabs

 

Mary Jane Chords & Tabs

Vines Chords & Tabs

Version: 1 Type: Tab 0 ratings
1 star 2 stars 3 stars 4 stars 5 stars
comments

Mary Jane Tab

   
#----------------------------------PLEASE NOTE---------------------------------#
#This file is the author's own work and represents their interpretation of the #
#song. You may only use this file for private study, scholarship, or research. #
#------------------------------------------------------------------------------#

THE VINES - Mary Jane

Not sure if I really like this one, but here it is anyway. Nice'n'easy
too :O)

INTRO
D   D   Am   C  basically. Mess about with them a bit and get the
rhythm by listening to the song (obviously).  On the D chord,
try a little variation by occasionally putting your little finger 
on the 5th fret (high E string). This isn't exactly how it's played,
but it's easy and sounds fine.

VERSE

SOLO
  D                      D
e----------------------|----------------------|
B----------------------|----------------------|
G-7-----9/14---12---11-|-7-----9/14---12---11-|
D----------------------|----------------------|
A----------------------|----------------------|
E----------------------|----------------------|
  Am                  C
e-------------------|---------------------|
B-------------------|---------------------|
G-12-----11-----9---|-5-----4---4b5b4-2---|
D-------------------|---------------------|
A-------------------|---------------------|    (x2)
E-------------------|---------------------|



Mary Jane (x8)
starsailoruk@yahoo.com

#----------------------------------PLEASE NOTE---------------------------------#
#This file is the author's own work and represents their interpretation of the #
#song. You may only use this file for private study, scholarship, or research. #
#------------------------------------------------------------------------------#
MaryJane - THE VINES

Tabbed by Clare  (rock_star_jammin@hotmail.com) 
8 / 12 / 02

This song is mostly made up of the 3 chords D Am and C and sometimes Dmaj7
[ Tab from: http://www.guitartabs.cc/tabs/v/vines/mary_jane_tab.html ]
I don't know that this tab is right, but it sound ok though. Its easy if you just put your fingers in the chord positions, especially with the Am and C , and you just lift the fingers up!  (If that makes any sense whatsoever)   feel free to email me if you cant understand it!! k

Intro:

       D           Dmaj7
E---2----5-0------2----2-------------2--3--2---|              x 2
B---3-------------2--------2-------------------|
G---2-------------2-----------2----------------|
D----------------------------------------------|
A----------------------------------------------|
E----------------------------------------------|

                 Am                                                                     C
E------------0--------------------------------------------------------------------------------------------------------
B------------1---------0--1------1-----------1------1----------------1--------------------------------1----------- 
G-2-------2--------2-----------------2----------2---2-------------0--------------------0------0------0-----------
D------2--------2------------------------2-----------2----------2--------0---2-----------2------2----2-----------
A---------------------------------------------------------------3------------------3----------3---------3-----------
E-------------------------------------------------------------------------------------------------
 
And then you just repeat it again

For the verse and other parts, you just strum the three chords D Am and C
Like this:

4         D                             D                              Am    C
4 



Well there you go. If you know anymore to this song. Or the right way to play it. Or maybe even the words to this song! Could you please email me at  (rock_star_jammin@hotmail.com)

**********************THE VINES RULE!!!!!!!!!!!!*************************

Clare
Comments