Vines - Mary Jane Chords & Tabs

 

Mary Jane Chords & Tabs

Vines Chords & Tabs

Version: 1 Type: Bass Tab 0 ratings
1 star 2 stars 3 stars 4 stars 5 stars
comments

Mary Jane Bass Tab

   
-------------------------------------------------------------------------------
			     Mary Jane - The Vines
-------------------------------------------------------------------------------

Tabbed By : Tyler
e-mail: youknowwho5532@yahoo.com

This is close but i dont think its exactly right o ya this is also my first tab

Tuning: Standard

Intro

G|--7 7 14-11----11h12-11----7 7 14-11--14-16-14----------------------------|
D|------------14------------------------------------------------------------|
A|--------------------------------------------------------------------------|
E|--------------------------------------------------------------------------|

[ Tab from: http://www.guitartabs.cc/tabs/v/vines/mary_jane_btab.html ]
G|------14--12--12/11--9/8--------------12 10 9 10 12-----------------------|
D|-7-7----------------------9/10  9/10--------------------------------------|
A|--------------------------------------------------------------------------|
E|--------------------------------------------------------------------------|

verse

G|-7----5----7--------------------------------------------------------------|
D|---------------5------7-----9 10------------------------------------------|
A|--------------------------------------------------------------------------|
E|--------------------------------------------------------------------------|

chorus is almost the same thing so just fool around with it until u get it right


the rest is basically the same thing so you can just figure the order out and stuff


| /  slide up
| \  slide down
| h  hammer-on
| p  pull-off
| ~  vibrato
| +  harmonic
| x  Mute note
============================================================================
Comments