Vines - Homesick Chords & Tabs

 

Homesick Chords & Tabs

Vines Chords & Tabs

Version: 1 Type: Tab 0 ratings
1 star 2 stars 3 stars 4 stars 5 stars
comments

Homesick Tab

   
The Vines - Homesick

Tabbed in part by Sam Ellis

This is one of my favourite songs by The Vines and I have been looking for a half
decent for it for a fair while, The main reason I tabbed it myself is there are
no tabs for complete solo on any sites. The chords at top of the tabs are
guideline for the rhythm guitarist. The amount of times each part is played
has not been indicated so listen to the to get the order but every part of
the song is tabbed.if you past this into word and it comes out messed up
change the font to "Courier New" about size 11)


Tab key
/ or //// 	= 	slide
h 		=	hammer on
p		=	pull off
hold		=	let note ring out


Piano part changed for guitar
     F
E|-----------------------------------------------------------|
B|---1---1---1---1---1---1---1---1---------------------------|
G|---2---2---2---2--2--2---2---2---------------------------|
D|-----3---3---3---3---3---3---3---3-------------------------|
A|-----------------------------------------------------------|
E|-----------------------------------------------------------|
           C                      G
E|---0---0---0---0---0---0---0-------------------------------|
B|---1---1---1---1---1---1---1----3--------------------------|
G|-----0---0---0---0---0---0---0--4--------------------------|
D|----------------------------------5------------------------|
A|-----------------------------------------------------------|
E|-----------------------------------------------------------|

"I left my home"
     F                  C                G
E|---1-1-1-1-1-1-1-1---------------------3-|
B|---1-1-1-1-1-1-1-1----1-1-1-1-1-1-1-1-3-|
G|---2-2-2-2-2-2-2-2----0-0-0-0-0-0-0-0-0-|
D|---3-3-3-3-3-3-3-3----2-2-2-2-2-2-2-2-0-|
A|----------------------3-3-3-3-3-3-3-3-2-|
E|---------------------------------------3-|

"Nothings gona save you"
     Dm                 F                  C
E|---1-1-1-1-1-1-1-1----1-1-1-1-1-1-1-1--------------------|
B|---3-3-3-3-3-3-3-3----1-1-1-1-1-1-1-1----1-1-1-1-1-1-1-1-|
G|---2-2-2-2-2-2-2-2----2-2-2-2-2-2-2-2----0-0-0-0-0-0-0-0-|
D|----------------------3-3-3-3-3-3-3-3----2-2-2-2-2-2-2-2-|
A|-----------------------------------------3-3-3-3-3-3-3-3-|
E|---------------------------------------------------------|

"I can see the leaves of golden"(listen to the song for when to come in)
     C           F          C        F
E|-----------------------------------------------------|
B|-----------------------------------------------------|
G|--------0-----------0---------0--------0-------------|
D|------2---2-------3---3-----2---2----3---3-----------|
A|----3-------3---3---------3--------3-----------------|
E|-----------------------------------------------------|


"Making time for everyone"

     Am        F          G         F
E|-----------------------------------------------------|
B|---------1----------1---------1---------1------------|
G|-------0----------0---------0---------0--------------|
D|-----2----------3---------2---------3----------------|
A|---3----------3---------3---------3------------------|
E|-----------------------------------------------------|


"but it really doesn't matter"(repeat till the following "I'll do it till..."
     F                   C
E|---1-1-1-1-1-1-1-1-1----------------------------------------|
B|---1-1-1-1-1-1-1-1-1---1-1-1-1-1-1-1-1----------------------|
G|---2-2-2-2-2-2-2-2-2---0-0-0-0-0-0-0-0----------------------|
D|---3-3-3-3-3-3-3-3-3---2-2-2-2-2-2-2-2----------------------|
A|-----------------------3-3-3-3-3-3-3-3----------------------|
E|------------------------------------------------------------|
[ Tab from: http://www.guitartabs.cc/tabs/v/vines/homesick_tab.html ]
"I'll do it till I get it right"
     Dm                  G
E|---1-1-1-1-1-1-1-1-1---3------------------------------------|
B|---3-3-3-3-3-3-3-3-3---3------------------------------------|
G|---2-2-2-2-2-2-2-2-2---0------------------------------------|
D|-----------------------0------------------------------------|
A|-----------------------2------------------------------------|
E|-----------------------3------------------------------------|

Solo(in full):
E|------------------------------------------------------------|
B|------------------------------------------------------------|
G|--5-----5-7////9-7-5-----5-7////9-7-5-----------------------|
D|----5/7--------------5/7----------------7--5--3p2h3p2h3p2---|
A|------------------------------------------------------------|
E|------------------------------------------------------------|


E|------------------------------------------------------------|
B|-------------------------------------------------------3----|
G|-------5---5-7////9-7-5---7////9p7-9b---5---2--5--2-5-------|
A|--------5/7------------5/7----------------------------------|
D|-3/5-3------------------------------------------------------|
E|------------------------------------------------------------|

E|------------------------------------------------------------|
B|-4b-4b-4b---------------------------------------------------|
G|----------------5-2p0-0-------------------------------------|
D|------------------------------------------------------------|
A|------------------------------------------------------------|
E|------------------------------------------------------------|

E|------------------------------------------------------------|
B|------------------------------------------------------------|
G|------------------------------------------------------------|
D|----------0-2////5////3-2h3p3p0-3b2--0---2b-------------|
A|------0h2----------------------------------3----3-let-ring--|
E|--0h3-------------------------------------------------------|

E|------------------------------------------------------------|
B|------------------------------------------------------------|
G|------------------------------------------------------------|
D|---3-hold---2-hold---0-hold---------------------------------|
A|------------------------------3-hold------------------------|
E|------------------------------------------------------------|
(Live this is played with palm muting and hitting each not 8 times)


E|------------------------------------------------------------|
B|------------------------------------------------------------|
G|------------------------------------------------------------|
D|----------0-2////5////3-2h3p3p0-3b2--0---2b-------------|
A|------0h2----------------------------------3----3-hold------|
E|--0h3-------------------------------------------------------|


E|----------------------------------------------------------|
B|---1------------1----------1-------------1----------------|
G|----2---4-2------2---4-2----0---4--0------0-4-0-----------|
D|-3---3------3-3---3-----3----2------2------2---2----------|
A|-------------------------3-----------3----------3---------|
E|----------------------------------------------------------|

This is my very first tab, I would appreciate it is you could rate it for me.

Any question my e-mail address is funystarfish19@hotmail.com


Lyrics:

I left my home
I left my home yeah, yeah
Where I should go
Where I should go yeah, yeah

Nothin's gonna save you
Nothin's gonna save you out there

Went on my own
Went on my own yeah, yeah
Without my phone
Without my phone yeah, yeah

Nothin's gonna save you
Nothin's gonna save you out there
Nothin's gonna save you
Nothin's gonna save you or give

I can see the leaves of golden glisten in the sun
Making time for everyone is what I should have done.
Blue and green with eyes between are acting all the same
You and me are never free until we're cast away

But it really doesn't matter couldn't change it if I tried
Though it really doesn't matter
I'll do it till I get it right
Comments