Vines - Get Free Chords & Tabs

 

Get Free Chords & Tabs

Vines Chords & Tabs

Version: 7 Type: Tab 1 rating
1 star 2 stars 3 stars 4 stars 5 stars
comments

Get Free Tab

Guitar tab by: Dean Chittick

Song: Get Free
Album: Highly Evolved
Artist: The Vines
Tuning: Normal (eadgbe)

Key:
/: slide
^: bend up
*: palm mute

Intro/Verse 1:
------------------------------------------------------------------- 
------------------------------------------------------------------- 
------------------------------------------------------------------- 
------------------------------------------------------------------- 
-3/5-5^-5^-5^-5^-5^--3/5-5^-5^-5^-5^-5^--3/5^-5^-5^-5^-5^-5^------- 
-------------------------------------------------------------------
 
------------------------------------------------------------------- 
------------------------------------------------------------------- 
-5-5--------------------------------------------------------------- 
-5-5-5-5-5--------------------------------------------------------- 
-3-3-5-5-5--------------------------------------------------------- 
-----3-3-3--------------------------------------------------------- 
[ Tab from: http://www.guitartabs.cc/tabs/v/vines/get_free_tab_ver_7.html ]
Verse 2:
------------------------------------------------------------------- 
------------------------------------------------------------------- 
----------------------------------------------5-5------------------ 
----------------------------------------------5-5-5-5-5------------ 
-3/5-5-5-5-5-5--3/5-5-5-5-5-5--3/5-5-5-5-5-5--3-3-5-5-5------------ 
--------------------------------------------------3-3-3------------ 
********************************************

Chorus (i think):
------------------------------------------------------------------- 
------------------------------------------------------------------- 
-5-7-5-7-5-7------------------------------------------------------- 
-5-7-5-7-5-7-5-5-5-6-6-3-3----------------------------------------- 
-3-5-3-5-3-5-5-5-5-6-6-3-3----------------------------------------- 
-------------3-3-3-4-4-1-1-----------------------------------------

Play this song with shit loads of distortion and jump around while 
you're doing it!!!

(emails to: silverchair_01@hotmail.com) 
Comments