Vines - Get Free Chords & Tabs

 

Get Free Chords & Tabs

Vines Chords & Tabs

Version: 5 Type: Tab 0 ratings
1 star 2 stars 3 stars 4 stars 5 stars
comments

Get Free Tab

   
#----------------------------------PLEASE NOTE---------------------------------#
#This file is the author's own work and represents their interpretation of the #
#song. You may only use this file for private study, scholarship, or research. #
#------------------------------------------------------------------------------#

Get Free by The Vines

From Dave Curtis 

Key:
GB : Gradual Bend
pm : Palm Mute

Intro:
e------------------------------------------------------------------------
B------------------------------------------------------------------------
G--/7-7-7-7-7-7-7-7--/7-7-7-7-7-7-7-7--/7-7-7-7-7-7-7-7--5-5-5-----------
D--/7-7-7-7-7-7-7-7--/7-7-7-7-7-7-7-7--/7-7-7-7-7-7-7-7--5-5-5--5-5-5-3--
A--/5-5-5-5-5-5-5-5--/5-5-5-5-5-5-5-5--/5-5-5-5-5-5-5-5--3-3-3--5-5-5-3--
E---------------------------------------------------------------3-3-3---- x2
  GB...............   ...............   ...............  


Verse:
e------------------------------------------------------------------------
B------------------------------------------------------------------------
G--/7-7-7-7-7-7-7-7--/7-7-7-7-7-7-7-7--/7-7-7-7-7-7-7-7--5-5-5-----------
D--/7-7-7-7-7-7-7-7--/7-7-7-7-7-7-7-7--/7-7-7-7-7-7-7-7--5-5-5--5-5-5-3--
A--/5-5-5-5-5-5-5-5--/5-5-5-5-5-5-5-5--/5-5-5-5-5-5-5-5--3-3-3--5-5-5-3--
E---------------------------------------------------------------3-3-3---- x2
  GB...............   ...............   ...............  
  pm...............   ...............   ...............

Chorus:
e--------------------------------
B--------------------------------
G--5-7--5-7--5-7--5-5-5----------
D--5-7--5-7--5-7--5-5-5--6-6-5-3-
A--3-5--3-5--3-5--3-3-3--6-6-5-3-
E------------------------4-4-3--- x3


Solo: 
e-----------------------------------------------
B-----------------------------------------------
G--7---5-7-5--7---5-7-5--7---5-7-5-7b9-5--------
D--7-7--------7-7--------7-7-------------7-5-7--
A--5----------5----------5----------------------
E----------------------------------------------- x2
[ Tab from: http://www.guitartabs.cc/tabs/v/vines/get_free_tab_ver_5.html ]
Verse 2:
e------------------------------------------------------------------------
B------------------------------------------------------------------------
G--/7-7-7-7-7-7-7-7--/7-7-7-7-7-7-7-7--/7-7-7-7-7-7-7-7--5-5-5-----------
D--/7-7-7-7-7-7-7-7--/7-7-7-7-7-7-7-7--/7-7-7-7-7-7-7-7--5-5-5--5-5-5-3--
A--/5-5-5-5-5-5-5-5--/5-5-5-5-5-5-5-5--/5-5-5-5-5-5-5-5--3-3-3--5-5-5-3--
E---------------------------------------------------------------3-3-3---- x2
  GB...............   ...............   ...............  
  pm...............   ...............   ...............

Chorus:
e--------------------------------
B--------------------------------
G--5-7--5-7--5-7--5-5-5----------
D--5-7--5-7--5-7--5-5-5--6-6-5-3-
A--3-5--3-5--3-5--3-3-3--6-6-5-3-
E------------------------4-4-3--- x3

Interlude:
e---------------------------------------------------------------------------
B---------------------------------------------------------------------------
G-7-7-7-5-5-7-7--5-5-5-5-5-5-5--7-7-7-5-5-7-7--5-5-5-5-5-5-5--5-5-5-5-5-5-5-
D-7-7-7-5-5-7-7--5-5-5-5-5-5-5--7-7-7-5-5-7-7--5-5-5-5-5-5-5--5-5-5-5-5-5-5-
A-5-5-5-5-5-5-5--3-3-3-0-0-3-3--5-5-5-5-5-5-5--3-3-3-0-0-3-3--3-3-3-0-0-3-3-
E---------------------------------------------------------------------------

Verse:
e------------------------------------------------------------------------
B------------------------------------------------------------------------
G--/7-7-7-7-7-7-7-7--/7-7-7-7-7-7-7-7--/7-7-7-7-7-7-7-7--5-5-5-----------
D--/7-7-7-7-7-7-7-7--/7-7-7-7-7-7-7-7--/7-7-7-7-7-7-7-7--5-5-5--5-5-5-3--
A--/5-5-5-5-5-5-5-5--/5-5-5-5-5-5-5-5--/5-5-5-5-5-5-5-5--3-3-3--5-5-5-3--
E---------------------------------------------------------------3-3-3---- x2
  GB...............   ...............   ...............  
  pm...............   ...............   ...............

Chorus:
e---------------------------------
B---------------------------------
G--5-7--5-7--5-7--5-5-5-----------
D--5-7--5-7--5-7--5-5-5--6-6-5-3--
A--3-5--3-5--3-5--3-3-3--6-6-5-3--
E------------------------4-4-3---- x3
Comments