Vines - Get Free Chords & Tabs

 

Get Free Chords & Tabs

Vines Chords & Tabs

Version: 16 Type: Tab 0 ratings
1 star 2 stars 3 stars 4 stars 5 stars
comments

Get Free Tab

-------------------------------------------------------------------------------
			     GET FREE - The Vines
-------------------------------------------------------------------------------
Tabbed by:*Truly Ninja*
Email:trulyninja@hotmail.com

Tuning: Simple Drop D (DADGBe)

Intro/Verse:
e|---------------------------------------------------------------------------|
B|---------------------------------------------------------------------------|
G|---------------------------------------------------------------------------|
D|-12-12-12-12-12b-12b-12b-10------10-10-5-5---------------------------------|
A|-12-12-12-12-12b-12b-12b-10-(x3)-10-10-5-5---------------------------------|
D|-12-12-12-12-12b-12b-12b-10------10-10-5-5---------------------------------|
[ Tab from: http://www.guitartabs.cc/tabs/v/vines/get_free_tab_ver_16.html ]
Chorus: (come here, come here...)
e|---------------------------------------------------------------------------|
B|---------------------------------------------------------------------------|
G|---------------------------------------------------------------------------|
D|--10-12--10-12--10-12---5-5-5-6-6-3-3--------------------------------------|
A|--10-12--10-12--10-12---5-5-5-6-6-3-3-(x4)---------------------------------|
D|--10-12--10-12--10-12---5-5-5-6-6-3-3--------------------------------------|

Solo:
e|---------------------------------------------------------------------------|
B|---------------------------------------------------------------------------|
G|------5-7-5------5-7-5-----5-7-5-7b-7-5------------------------------------|
D|----7----------7---------7--------------7-5-3-0----------------------------|
A|---------------------------------------------------------------------------|
D|--0----------0---------0---------------------------------------------------|

Bridge: "When it's breeding time..."
e|---------------------------------------------------------------------------|
B|---------------------------------------------------------------------------|
G|---------------------------------------------------------------------------|
D|---8------5------8------7--------------------------------------------------|
A|---8-(x8)-5-(x8)-8-(x8)-7-(x16)--------------------------------------------|
D|---8------5------8------7--------------------------------------------------|

Order:

Intro/verse x8

Chorus x4

Solo x2

Intro/Verse x4

Chorus x4

Bridge x1

Intro/Verse x4

Chorus x4
Comments