Vines - Get Free Chords & Tabs

 

Get Free Chords & Tabs

Vines Chords & Tabs

Version: 14 Type: Tab 0 ratings
1 star 2 stars 3 stars 4 stars 5 stars
comments

Get Free Tab

   
The Vines Website: http://www.thevines.com/

The Vines - Get Free (Intro, Verse, and Chorus)
Track 6 on album "Highly Evolved"
Tabbed by JohnLennon1984


Intro
e|-----------------------------------------------X-----------
B|-----------------------------------------------X-----------
G|-----------------------------------------------X-----------
D|-----------------------------------------------X-5-5-------
A|-5-5-5-5-5-5-5-3-5-5-5-5-5-5-5-3-5-5-5-5-5-5-5-X-3-3-5-5-5-
E|-----------------------------------------------X-----3-3-3- 

e|-----------------------------------------------X-----------
B|-----------------------------------------------X-----------
G|-----------------------------------------------X-----------
D|-----------------------------------------------X-5-5-------
A|-5-5-5-5-5-5-5-3-5-5-5-5-5-5-5-3-5-5-5-5-5-5-5-X-3-3-5-5-5-
E|-----------------------------------------------X-----3-3-3- 
[ Tab from: http://www.guitartabs.cc/tabs/v/vines/get_free_tab_ver_14.html ]
Verse
   [--------Palm Mute------------------------]
e|-----------------------------------------------X-----------
B|-----------------------------------------------X-----------
G|-----------------------------------------------X-----------
D|-7-7-7-7-7-7-7-5-7-7-7-7-7-7-7-5-7-7-7-7-7-7-7-7-5-5-------
A|-5-5-5-5-5-5-5-3-5-5-5-5-5-5-5-3-5-5-5-5-5-5-5-5-3-3-5-5-5-
E|-----------------------------------------------X-----3-3-3- 

   [--------Palm Mute------------------------]
e|-----------------------------------------------X-----------
B|-----------------------------------------------X-----------
G|-----------------------------------------------X-----------
D|-7-7-7-7-7-7-7-5-7-7-7-7-7-7-7-5-7-7-7-7-7-7-7-7-5-5-------
A|-5-5-5-5-5-5-5-3-5-5-5-5-5-5-5-3-5-5-5-5-5-5-5-5-3-3-5-5-5-
E|-----------------------------------------------X-----3-3-3- 


Chorus
e|---------------------------------
B|---------------------------------
G|---------------------------------
D|-5-7---5-7---5-7-----------------
A|-3-5---3-5---3-5---5-5-5-6-6-3-3-
E|-------------------3-3-3-4-4-1-1-

e|---------------------------------
B|---------------------------------
G|---------------------------------
D|-5-7---5-7---5-7-----------------
A|-3-5---3-5---3-5---5-5-5-6-6-3-3-
E|-------------------3-3-3-4-4-1-1-

e|---------------------------------
B|---------------------------------
G|---------------------------------
D|-5-7---5-7---5-7-----------------
A|-3-5---3-5---3-5---5-5-5-6-6-3-3-
E|-------------------3-3-3-4-4-1-1-

e|---------------------------------
B|---------------------------------
G|---------------------------------
D|-5-7---5-7---5-7-----------------
A|-3-5---3-5---3-5---5-5-5-6-6-3-3-
E|-------------------3-3-3-4-4-1-1-
Comments