Vines - Get Free Chords & Tabs

 

Get Free Chords & Tabs

Vines Chords & Tabs

Version: 1 Type: Tab 0 ratings
1 star 2 stars 3 stars 4 stars 5 stars
comments

Get Free Tab

   
THe VinEs
Get Free
highly evolved

standard tuning

    slide on & gradually bend the octave
e|--------------------------------------------|
B|--------------------------------------------|
G|--5/7--7-7-7-7-7-7-7----5/7--7-7-7-7-7-7-7--|  intro
D|--x-x--x-x-x-x-x-x-x----x-x--x-x-x-x-x-x-x--|
A|--3/5--5-5-5-5-5-5-5----3-5--5-5-5-5-5-5-5--|
E|--------------------------------------------|
[ Tab from: http://www.guitartabs.cc/tabs/v/vines/get_free_tab.html ]
     C5          G5 
e|-------------------------|
B|-------------------------|
G|-5--5--5-----------------|   After intro
D|-5--5--5------5--5-------|
A|-3--3--3------5--5-------|
E|--------------3--3-------|


      verse

|-------------------|              |----------------|
|-------------------|              |----------------|
|-------------------| X3  then...  |-5-5-5----------|
|-7-7-7-7-7-7-7-----|              |-5-5-5----5--5--|
|-5-5-5-5-5-5-5-----|              |-3-3-3----5--5--|
|-------------------|              |----------3--3--|


   for the chorus i GUESS he just plays D5 and then C5 and G5
   not sure but it sounds like it.  email me if u have something to add or
   comment at johnnie_5ive@hotmail.com        
Comments