Vines - Dont Go Chords & Tabs

 

Dont Go Chords & Tabs

Vines Chords & Tabs

Version: 1 Type: Tab 0 ratings
1 star 2 stars 3 stars 4 stars 5 stars
comments

Dont Go Tab

ok this is an unreleased vines song (maybe it was released as a b-side on a single)
that i found and liked alot. if you would like to hear it visit:
http://www.apwk93.dsl.pipex.com/vines/index.htm


Verse
(this is played quietly)
e------------------------------------------------------|
b------------------------------------------------------|
b------------------------------------------------------|
g------------------------------------------------------|
d------------------------------------------------------|
a-----5-----5-----5-----5-----6-----6-----6-----6------|
e--3-----3-----3-----3-----4-----4-----4-----4---------|

e------------------------------------------------------|
b------------------------------------------------------|
g------------------------------------------------------|
d------------------------------------------------------|
a-----10-----10-----10-----10------13------13------13--|
e--8------8------8------8------11------11------11------| (play four times)


Chorus
(this is played loud)
e------------------------------------------------------|
b------------------------------------------------------|
g------------------------------------------------------|
d------------------------------------------------------|
a--5--5--5--5--5--5--5--5--6--6--6--6--6--6--6--6------|
e--3--3--3--3--3--3--3--3--4--4--4--4--4--4--4--4------|
[ Tab from: http://www.guitartabs.cc/tabs/v/vines/dont_go_tab.html ]
e------------------------------------------------------------------|
b------------------------------------------------------------------|
g------------------------------------------------------------------|
d------------------------------------------------------------------|
a--10--10--10--10--10--10--10--10--13--13--13--13--13--13--13--13--|
e--8---8---8---8---8---8---8---8---11--11--11--11--11--11--11--11--|
                                                           (play two times)


Ending Chorus/Guitar Break
(played over last chorus)
e----------------------------------------------------|
b----------------------------------------------------|
g----------------------------------------------------|
d-----5--3--5^(6)--(r)5--3-----5--3--5^(6)--(r)5--3--|
a----------------------------------------------------|
e--3------------------------4------------------------|

e----------------------------------------------------|--------------|
b----------------------------------------------------|--------------|
g----------------------------------------------------|--------------|
d-----5--3--5^(6)--(r)5--3-----5--3--5^(6)--(r)5--3--|--------------|
a--3------------------------6------------------------|--------------|
e----------------------------------------------------|--end on --3--|
                                     (play two times)

The song is broken down like this...

Verse
Chorus
Verse
Chorus(5x)
Ending Chorus/Guitar Break


Lyrics:

Taking everything I see
Walking on the ground happy
Waiting for the dare to start
Cause something's got me all alone

Oh no don't go
Throw away undo it play the bass
I know if she goes
Gonna be left on this pedastal

Take the weight up off your mind
Dreaming for the seventh time
If we wake now we'll believe
Either way it's fun to dream

Oh no don't  go
Through a world undo it baby
I know if she goes
Gonna be left on this pedastal
Comments