Vines - Country Yard Chords & Tabs

 

Country Yard Chords & Tabs

Vines Chords & Tabs

Version: 1 Type: Tab 0 ratings
1 star 2 stars 3 stars 4 stars 5 stars
comments

Country Yard Tab

#-----------------------------------------------------------------------------#
#-- File created with Instab - http://www.pconline.com/~smcarey/instab.html --#
#-----------------------------------------------------------------------------#

Author/Artist: The Vines
Title: country yard
Transcribed by: Saverain
Email: saverain@hotmail.com

This is what it sounds like to me and if you don't
 like it E-mail me
you'll have to find the lyrics somewhere else sorry.
 I are not to good words
v strum down
^ strum up
b bend   r release bend    h hammer on
m mute   / slide up   \ slide down  
s strum down slowly

-|-----------------------------------------|---------|------------------------
-|-----------------------------------------|---------|------------------------
-|-----2---------0---------0---------0-----|-------5-|------------------------
-|---2-----2---2-----2---0-----0---0-----0-|---0h2---|------------------------
-|-0-----0---3-----3---2-----2---2-----2---|-x-------|------------------------
-|-----------------------------------------|-5-------|------------------------
   intro                                                                      
[ Tab from: http://www.guitartabs.cc/tabs/v/vines/country_yard_tab.html ]
-|-----------------------------|----------------------------------------------
-|--------------------------0--|----------------------------------------------
-|-----2---------0----------0--|----------------------------------------------
-|---2-----2---2-----2---------|----------------------------------------------
-|-0-----0---3-----3---2-------|----------------------------------------------
-|-----------------------------|----------------------------------------------
                                                                              

-|----------------------------|-----------------------------|-----------------
-|-----2b------------------2b-|-----2b-------------------2b-|-----------------
-|-----------6b-----4b--------|------------6b-----4b--------|4-4-4-4-4--4-4-4-
-|---2-------------------4----|---2------6-------------4----|4-4-4-4-4--4-4-4-
-|-0--------------5----2------|-0------4--------5----2------|2-2-2-2-2--2-2-2-
-|--------------3-------------|---------------3-------------|-----------------
  beginning of verse             verse                      end of verse      

-|----------------------------|-----------------------------|-----------------
-|----------------------------|-----------------------------|-----------------
-|--------------4------4------|-2------6------4------4------|4----------------
-|--------------5------4------|-2------6------5------4------|4----------------
-|--------------5------2------|-0------4------5------2------|2----------------
-|--------------3-------------|---------------3-------------|-----------------
  play with beginning verse      play with verse             play with end    

-|--------------------------------------|-------------------------------------
-|--------------------------------------|-------------------------------------
-|----6--------6---------4--------4-----|-------------------------------------
-|-7--7-7-7-6--6-6-6--5--5-5-5-4--4-4-4-|-------------------------------------
-|-7--7-7-7-4--4-4-4--5--5-5-5-2--2-2-2-|-------------------------------------
-|-5--5-5-5-4--4-4-4--3--3-3-3-2--2-2-2-|-------------------------------------
   v  v v ^continue  rythm chorus                                             

Comments