Vines - Autumn Shade Chords & Tabs

 

Autumn Shade Chords & Tabs

Vines Chords & Tabs

Version: 2 Type: Chords 0 ratings
1 star 2 stars 3 stars 4 stars 5 stars
comments

Autumn Shade Chords

   
#----------------------------------PLEASE NOTE---------------------------------#
#This file is the author's own work and represents their interpretation of the #
#song. You may only use this file for private study, scholarship, or research. #
#------------------------------------------------------------------------------#
The Vines - Autumn Shade II  
Album: Winning Days  

HiM_8913
thanks to: http://vines.maladroit.com/tabs.html
This tab is about 99% right if not 100%, Enjoy

  Intro/Verse
[ Tab from: http://www.guitartabs.cc/tabs/v/vines/autumn_shade_crd_ver_2.html ]
  |-------0---0--|------3---3---|-------0---0--|--------0---0--|
  |-------0-0-0--|------0---0---|-------0-0-0--|--------2---2--|
  |--------------|--------------|--------------|----------2----|
  |--2-----------|--------0-----|--------------|----2----------|
  |-3------------|---2----------|---2----------|---0-----------|
  |--------------|--3-----------|--0-----------|---------------|

 
 "Sleeping in the Autumn Shade..."

       C         G            Em
  |-00-000--|-33-333-----|-00-000-----|
  |-11-100--|-00-000-----|-00-000-----|
  |-00-000--|-00-000-----|-00-000-----|
  |-22-222--|-00-000-----|-22-222-----|
  |-33-333--|-22-222-----|-22-222-----|
  |-00-000--|-33-333-----|-00-000-----| (3x)


 "Sleeping in the Autumn Shade, oh yeah..."
     
       C          G           Em
  |-00-000---|-33-333-----|-00-000-----|
  |-11-111---|-00-000-----|-00-000-----|
  |-00-000---|-00-000-----|-00-000-----|
  |-22-222---|-00-000-----|-22-222-----|
  |-33-333---|-22-222-----|-22-222-----|
  |----------|-33-333-----|-00-000-----|
Comments