Vines - Animal Machine Chords & Tabs

 

Animal Machine Chords & Tabs

Vines Chords & Tabs

Version: 4 Type: Tab 0 ratings
1 star 2 stars 3 stars 4 stars 5 stars
comments

Animal Machine Tab

   
Band: The Vines
Album: Winning Days
Song: Animal Machine
Originally Tabbed By: Dorian
Re-Tabbed By: Jared

Standard Tuning

|Riff A|
E---------------------|
B---------------------|
G------------------6--|
D-------2--------6----|
A----1-------1/4------|
E---------------------|

|Riff B|
E---|
B---|
G---|
D-6-|
A-6-|
E-4-|

|Riff C|
E-----------------|
B-----------------|
G-----------------|
D--------------6--|
A----2-------6----|
E--1-----1/4------|

|Riff D|   
E----6-6--x-6---4--44444-|
B----6-6--x-6---4--44444-|
G----7-7--x-7---5--55555-|
D----8-8--x-8---6--66666-|
A----8-8--x-8---6--66666-|
E----6-6--x-6---4--44444-|

|Solo|
E-------------------------------------------------------|
B----------------------------------------------8b-------|
G----9b10-----9-9-9-8-6--6h8p6--------------6-----9~~~~-|
D-------------------------------8~~~~-------------------|
A-------------------------------------------------------|
E-------------------------------------------------------|

E---------------------------------------------|
B---------------------------------------------|
G---9-9-9-8-6--6h8p6------------------------4-|
D---------------------8~~~~-8/6--6/3--3-3-2---|
A---------------------------------------------|
E---------------------------------------------|
				
E---------------------------------------|
B---------------------------------------|
G------------6-8b-6--6-8b-6~~~~-----6/--|
D---/6-6-6-8----------------------------|
A---------------------------------------|
E---------------------------------------|
     
E------------------------------------|
B------------------------------------|
G------------------------------------|
D------/999999999999-10-10-9-10-11b--|
A------------------------------------|
E------------------------------------|

This part is most likely improvised, just screw around with it.

E----7/8b--9~~--11~~---15b--15/17~~--19b--19/21-21-21-21-21-21-|
B--------------------------------------------------------------|
G--------------------------------------------------------------|
D--------------------------------------------------------------|
A--------------------------------------------------------------|
E--------------------------------------------------------------|
[ Tab from: http://www.guitartabs.cc/tabs/v/vines/animal_machine_tab_ver_4.html ]
|Riff E|  
E------------------------------|
B------------------------------|
G------------------------------|
D------2--1--------------------|
A---1-------4-1------4------4--|
E----------------2-2----0-0----|

|Riff F|
E-----------------|
B-----------------|
G-----------------|
D-444-222-444-222-|
A-444-222-444-222-|
E-222-000-222-000-|
 
|Riff G| 
E-----------|
B--3333333--|
G--3333333--|
D--3333333--|
A--1111111--|
E-----------| 

Riff Order:

Legend:
C = Clean
D = Distorted

|Riff A|(C) x 4

|Riff A|(C) x 4
I'm lookin' down by the streets end
|Riff A|(C) x 4
Girl you've been lacking a pretense

|Riff B|(C) x 12
So save your money for the weak you're gonna kill

|Riff A|(C) x 2

|Riff C|(C) x 2
'Cause I got something that the company know how to feel

|Riff A|(D) x 4

|Riff A|(D) x 4
I'm lookin' down by the streets end
|Riff A|(D) x 4
Girl you've been lacking a pretense

|Riff D|(D)
There can't be anything between
|Riff D|(D)
It's automatic over me
|Riff D|(D)
Shoot like an animal machine
|Riff D|(D)
Straight from the colours of her dream

|Riff A|(C) x 2

|Riff A|(C) x 2
Colours of her dream

|Solo|(D)

|No Guitar|
I'm lookin' over the deep end
Time ain't a reason or defense

|Riff A|(D) x 4
FLY from a tree to a seabed
|Riff A|(D) x 4
Meanwhile, you'll be locked in a freezer

|Riff D|(D)
There can't be anything between
|Riff D|(D)
It's automatic over me
|Riff D|(D)
Shoot like an animal machine
|Riff D|(D)
Straight from the colours of her dream

|Riff A|(D) x 2

|Riff A|(D) x 2
Colors of her dream
|Riff A|(D)
Shoot like an animal machine 
|Riff A|(D)
Straight from the colors of her dream
|Riff A|(D)
Straight from the colors of her dream
|Riff A|(D)
Colors of her dream

|Riff E|(D)
Colors of her dream
|Riff E|(D)
Colors of her dream
|Riff E|(D)
Colors of her dream
|Riff F|(D)
|Riff G|(D)

Well, that's it, I'm pretty sure the tab and song order are 100% correct.
This is an awesome song to play, and I hope you enjoy this tab.
Comments