Vines - Animal Machine Chords & Tabs

 

Animal Machine Chords & Tabs

Vines Chords & Tabs

Version: 3 Type: Tab 0 ratings
1 star 2 stars 3 stars 4 stars 5 stars
comments

Animal Machine Tab

   
-------------------------------------------------------------------------------
       The Vines - Winning Days - Animal Machine Solo
-------------------------------------------------------------------------------
Tabbed by: thefloydcouncil
Email: therockvision@yahoo.com
Tuning: Normal


NOTE: Craig plays this solo (and most of his for that matter -_-) very messy-like. Call 
his style or whatever, but you don't have to follow every exact note on this tab, but 
to the song and play it how you like.


e|-----------------------------------------------------------------------------|
B|-----------------------------------------------------------------------------|
G|--------\9b!~----999-8-6--8p6h8p6--------------------------------------------|
D|---------------------------------------------------8r~~----------------------|
A|-----------------------------------------------------------------------------|
E|-----------------------------------------------------------------------------|

e|---------------------------------------------------------------------------------|
B|-----8b--------------------------------------------------------------------------|
G|--6------9b!~---999-8-6--8p6h8p6-----------------------------3b------------------|
D|-----------------------------------------------8~\6-6\3----3-3-2-----------------|
A|---------------------------------------------------------------------------------|
E|---------------------------------------------------------------------------------|
[ Tab from: http://www.guitartabs.cc/tabs/v/vines/animal_machine_tab_ver_3.html ]
e|-----------------------------------------------------------------------------|
B|-----------------------------------------------------------------------------|
G|---------------6-8p6-6~--8p6-6~~\--------------------------------------------|
D|--/6-66-8--------------------------------------------------------------------|
A|-----------------------------------------------------------------------------|
E|-----------------------------------------------------------------------------|
                                                        ^^ very slowly slide down
e|-----------------------------------------------------------------------------|
B|-----------------------------------------------------------------------------|
G|-----------------------------------------------------------------------------|
D|----*/9--999999999999-10-10-9-10-11b~----------------------------------------|
A|-----------------------------------------------------------------------------|
E|-----------------------------------------------------------------------------|
           ^^ finger press then slide up, and slightly bend all the 9's

for this last part just mess around and use feedback
e|-----17b~~~\\--5h7b-5h8b--9b-11b/20-21-21-21b-21b~---------------------------|
B|-----------------------------------------------------------------------------|
G|-----------------------------------------------------------------------------|
D|-----------------------------------------------------------------------------|
A|-----------------------------------------------------------------------------|
E|-----------------------------------------------------------------------------|

| /  slide up
| \  slide down
| h  hammer-on
| p  pull-off
| ~  vibrato
| b  bend
| !    bend as high as fast as possible lol


that's all, email therockvision@yahoo.com for any questions
===================================================
Comments