Vines - Animal Machine Chords & Tabs

 

Animal Machine Chords & Tabs

Vines Chords & Tabs

Version: 2 Type: Tab 0 ratings
1 star 2 stars 3 stars 4 stars 5 stars
comments

Animal Machine Tab

The Vines
Winning Days
Animal Machine

Tuning-Standard

Listen to song for timing of riffs and solo.


Intro riff 12 times......then P.M. then intro riff 2 times
E---------------------------------------------------------
B---------------------------------------------------------
G------------------6------------------------------------6-
D-------2--------6--------------6------------2--------6---
A----1-------1/4----------------6---------1-------1/4-----
E-------------------------------4-------------------------

 then this 2 times-Use the first intro riff for all verses
E---------------------------------------------------------
B---------------------------------------------------------
G---------------------------------------6-----------------
D--------------6---------------2------6-------------------
A----2-------6--------------1-----1/4---------------------
E--1-----1/4----------------------------------------------

  Chorus   
E----6-6--x-6---4--44444-----------------------------------
B----6-6--x-6---4--44444-----------------------------------
G----7-7--x-7---5--55555-----------------------------------
D----8-8--x-8---6--66666-----------------------------------
A----8-8--x-8---6--66666-----------------------------------
E----6-6--x-6---4--44444-----------------------------------

  Solo- Huge gradual bend
E-------------------------------------------------------
B----------------------------------------------8b-------
G----9b10-----9-9-9-8-6--6h8p6--------------6-----9~~~~-
D-------------------------------8~~~~-------------------
A-------------------------------------------------------
E-------------------------------------------------------
[ Tab from: http://www.guitartabs.cc/tabs/v/vines/animal_machine_tab_ver_2.html ]
E-------------------------------------------------------
B-------------------------------------------------------
G---9-9-9-8-6--6h8p6------------------------4-----------
D---------------------8~~~~-8/6--6/3--3-3-2-------------
A-------------------------------------------------------
E-------------------------------------------------------
				Slide & Trail off
E-------------------------------------------------------
B-------------------------------------------------------
G------------6-8b-6--6-8b-6~~~~-----6/------------------
D---/6-6-6-8--------------------------------------------
A-------------------------------------------------------
E-------------------------------------------------------
     Slight gradual bending on the 9.
E-------------------------------------------------------
B-------------------------------------------------------
G-------------------------------------------------------
D---/9-9-9-9-9-9-9-99-9-10-10-9-10b---------------------
A-------------------------------------------------------
E-------------------------------------------------------

 Feedback and picking over screams. (Just mess around)

E----7/8b--9~~--11~~---15b--15/17~~--19b--19/21-21-21-21-21-21-
B--------------------------------------------------------------
G--------------------------------------------------------------
D--------------------------------------------------------------
A--------------------------------------------------------------
E--------------------------------------------------------------

  End Riff played 4 times .......on the 4th time use chords
E---------------------------------------------------------------
B---------------------------------------------------------------
G---------------------------------------------------------------
D------2--1----------------------------444-222-444-222----------
A---1-------4-1------4------4----------444-222-444-222----------
E----------------2-2----0-0------------222-000-222-000----------

  
 End on Bb
E--------------------------------------
B--3333333-----------------------------
G--3333333-----------------------------
D--3333333-----------------------------
A--1111111-----------------------------
E--------------------------------------  Tabs by-Dorian
Comments