Vines - Animal Machine Chords & Tabs

 

Animal Machine Chords & Tabs

Vines Chords & Tabs

Version: 1 Type: Tab 0 ratings
1 star 2 stars 3 stars 4 stars 5 stars
comments

Animal Machine Tab

                       ------ANIMAL MACHINE-----
-----------------------------THE VINES------------------------------------
Tabbed by: Martin_Engel
Email: vivalavictoria@web.de
Tuning: Normal 

Intro:    (clean)
D|-----2--/-----6--------
A|--1-----/--4-----4----          x4
E|------------------------


First Part:  (clean)
D|-----2--/-----6--------
A|--1-----/--4-----4-----        x8
E|------------------------
Im looking down by the Streetsend.... Girl youve been lacking a pretense

Break 1:  (clean)   Completely Muted
D|------6-6-6-6-6-6-6-6---4-4-4-4-4-4-4-4------
A|------6-6-6-6-6-6-6-6---4-4-4-4-4-4-4-4------
E|------4-4-4-4-4-4-4-4---2-2-2-2-2-2-2-2-------
PM:     .  .  .  .  .  .  .  .     .  .  .  .  .  .  .  .
So safe your money for the weak your gonna kill...

Break 2: light disorted
D|--3------/--6-6-6--
A|--3----2-/--6-6-6--   x2
E|--1------/-4-4-4--
Coz I got something that the company in a hollow free...

Verse: (Disortion)
D|--8----/-11-11-11---
A|--8--7-/-11-11-11---    x11
E|--6----/-9---9---9----
Iiiaaaam loooking down by tha streetseeeend.... Giiiirrllll....

End of Verse: (Disortion)
D|--8----/--11-11-11-11-11---
A|--8--7-/--11-11-11-11-11---     Strum the Powerchord on 9
E|--6----/---9---9--9---9---9--

Chorus: (Distortion):
D|--8-8---88--6----6-6-6-6-6-6-6-
A|--8-8---88--6----6-6-6-6-6-6-6-   x4 (listen to the song to get it.. this is correct)
E|--6-6---66--4----4-4-4-4-4-4-4-
Rock,Rock dadada  There can't be anything between...

Solo: (Disortion)
e|-------------------------------------------------------------------------
B|-------------------------------------------------------------------------
G|--------9b!~----999-8-6--8p6h8p6----------------------------------
D|---------------------------------------------------8r~~----------------
A|-------------------------------------------------------------------------
E|-------------------------------------------------------------------------
[ Tab from: http://www.guitartabs.cc/tabs/v/vines/animal_machine_tab.html ]
e|-------------------------------------------------------------------------
B|-----8b------------------------------------------------------------------
G|--6------9b!~---999-8-6--8p6h8p6-----------------------------3b---
D|-----------------------------------------------8~6-63----3-3-2------
A|-------------------------------------------------------------------------
E|-------------------------------------------------------------------------

e|-------------------------------------------------------------------------
B|-------------------------------------------------------------------------
G|---------------6-8p6-6~--8p6-6~~-----------------------------------
D|--/6-66-8---------------------------------------------------------------
A|-------------------------------------------------------------------------
E|-------------------------------------------------------------------------
                                                         very slowly slide down
e|-------------------------------------------------------------------------
B|-------------------------------------------------------------------------
G|-------------------------------------------------------------------------
D|----*/9--999999999999-10-10-9-10-11b~--------------------------
A|-------------------------------------------------------------------------
E|-------------------------------------------------------------------------
           finger press then slide up, and slightly bend all the 9's

e|-----17b~~~\--5h7b-5h8b--9b-11b/20-21-21-21b-21b~---------
B|-------------------------------------------------------------------------
G|-------------------------------------------------------------------------
D|-------------------------------------------------------------------------
A|-------------------------------------------------------------------------
E|-------------------------------------------------------------------------


Outro: (Disortion) 
G|----------/----6-6-6--------------------------------------------------
D|---8-----/---6-6-6----4-4-4---2-----2-2------------------4-4-4---2-
A|---8--7--/---4-4-4----4-4-4---2-----2-2---x4 then-->--4-4-4---2--x2
E|---6-------------------2-2-2---0-----0-0------------------2-2-2---0-


End Note:(Disortion)
G|-3-3-3-3-3-3-3-3-3-3--
D|-3-3-3-3-3-3-3-3-3-3--
A|-1-1-1-1-1-1-1-1-1-1--
E|--------------------------


Thats it! Song rocks! Tab = 100% accurate! Have fun!
For Questions mail me @ Vivalavictoria@web.de
Comments