Vines - Animal Machine Chords & Tabs

 

Animal Machine Chords & Tabs

Vines Chords & Tabs

Version: 1 Type: Bass Tab 0 ratings
1 star 2 stars 3 stars 4 stars 5 stars
comments

Animal Machine Bass Tab

   
-------------------------------------------------------------------------------
			     Animal Machine- The Vines
-------------------------------------------------------------------------------

Tabbed By : Angus 2.5
e-mail: Angus2point5@aol.com

This is my first tab, so here it is.
Intro
G|---------------------------------------------------------------------------|
D|--------------------------3----------3-------------------------------------|
A|-3333333333333333-2*-4*-00--22*-4*-00--------------------------------------|
D|---------------------------------------------------------------------------|
Verse
G|---------------------------------------------------------------------------|
D|---------3----------3------------------------------------------------------|
A|-2*-4*-00--22*-4*-00-------------------------------------------------------|
D|---------------------------------------------------------------------------|
(Repeat x12)

G|---------------------------------------------------------------------------|
D|-----------------3------------3------------3------------3------------------|
A|---55555---22-44---5-3*-22-44---5-3*-22-44---5-3*-22-44---5-3*-------------|
D|---------------------------------------------------------------------------|

G|---------------------------------------------------------------------------|
D|---------3----------3------------------------------------------------------|
A|-2*-4*-00--22*-4*-00-------------------------------------------------------|
D|---------------------------------------------------------------------------|
(Repeat x33)
[ Tab from: http://www.guitartabs.cc/tabs/v/vines/animal_machine_btab.html ]
G|---------------------------------------------------------------------------|
D|---------3----------3------------------------------------------------------|
A|-2*-4*-00--22*-4*-00-------------------------------------------------------|
D|---------------------------------------------------------------------------|
(Repeat x8)

G|---------------------------------------------------------------------------|
D|-----------------3------------3------------3------------3------------------|
A|---55555---22-44---5-3*-22-44---5-3*-22-44---5-3*-22-44---5-3*-------------|
D|---------------------------------------------------------------------------|

G|---------------------------------------------------------------------------|
D|---------3----------3------------------------------------------------------|
A|-2*-4*-00--22*-4*-00-------------------------------------------------------|
D|---------------------------------------------------------------------------|
(Repeat x9)

G|---------------------------------------------------------------------------|
D|-7-5-4-3-2-33-5-11-3-------------------------------------------------------|
A|---------------------------------------------------------------------------|
D|---------------------------------------------------------------------------|
(Repeat x3)

G|---------------------------------------------------------------------------|
D|--33-5-11-3----------------------------------------------------------------|
A|---------------------------------------------------------------------------|
D|---------------------------------------------------------------------------|
(repeat x2)

G|---------------------------------------------------------------------------|
D|-222222222-----------------------------------------------------------------|
A|---------------------------------------------------------------------------|
D|---------------------------------------------------------------------------|


| /  slide up
| \  slide down
| h  hammer-on
| p  pull-off
| ~  vibrato
| +  harmonic
| x  Mute note
| *  Hold note
===============================================================================
Comments