Vines - Amnesia Chords & Tabs

 

Amnesia Chords & Tabs

Vines Chords & Tabs

Version: 3 Type: Tab 0 ratings
1 star 2 stars 3 stars 4 stars 5 stars
comments

Amnesia Tab

It didn't take me long to learn this song. Everyone else's tabs on this aren't very good,
so here is a version that I am most positive is correct. I have very bad hearing though
(95% loss in left ear and 30% loss in right), but this sounds right to me when I play it.
If there's any problems, just e-mail me send me a message and I'll change it. I hope you
enjoy one of the greatest songs ever by the best band in the world, The Vines.

Artist: The Vines
Song: "Amnesia"
Album: Winning Days

Intro:

E------------0-------------0-------------0-------------0----|
B-------0h2-----2------0h2----2------0h2----2------0h2----2-|
G---0h2------------0h2-----------0h2-----------0h2----------|
D-----------------------------------------------------------|
A-----------------------------------------------------------|
E-----------------------------------------------------------|

E-----------0-------------0-------------3-------------3-----|
B-------0h1----1------0h1----1------0h3----3------0h3----3--|
G---0h2-----------0h2-----------0h2-----------0h3-----------|
D-----------------------------------------------------------|
A-----------------------------------------------------------|
E-----------------------------------------------------------|

Verse 1:

E-----------------------------------------------------------|
B-----------------------------------------------------------|
G---2~~~~~~~~~~~~~~~~~~~~~~~5--5-55555-5555-----------------|
D---2~~~~~~~~~~~~~~~~~~~~~~~5--5-55555-5555-5--5-55555-5555-|
A---0~~~~~~~~~~~~~~~~~~~~~~~3--3-33333-3333-5--5-55555-5555-|
E-------------------------------------------3--3-33333-3333-|

    I cannot remember... my own....... sanity.........

E-------------------------------------------------------------|
B-------------------------------------------------------------|
G-2~~~~~~~~~~~~~~~~~~~~~~~~~~~5--5-55555-5555-----------------|
D-2~~~~~~~~~~~~~~~~~~~~~~~~~~~5--5-55555-5555-5--5-55555-5555-|
A-0~~~~~~~~~~~~~~~~~~~~~~~~~~~3--3-33333-3333-5--5-55555-5555-|
E---------------------------------------------3--3 33333-3333-|
 God's love ain't forever... he'll set...us free.........

Chorus:

E-------------------------------------------------------------------|
B-------------------------------------------------------------------|
G---2--2-22222-2222-2--2-22222-2222-5--5-55555-5555-----------------|
D---2--2-22222-2222-2--2-22222-2222-5--5-55555-5555-5--5-55555-5555-|
A---0--0-00000-0000-0--0-00000-0000-3--3-33333-3333-5--5-55555-3333-|
E---------------------------------------------------3--3-33333-3333-|

Ah-ahhhhhhhhhhhhhhhhhhhhhhh..... ah-ahhhhhhhhhhh... ooo...........

E-------------------------------------------------------------------|
B-------------------------------------------------------------------|
G---2--2-22222-2222-2--2-22222-2222-5--5-55555-5555-----------------|
D---2--2-22222-2222-2--2-22222-2222-5--5-55555-5555-5--5-55555-5555-|
A---0--0-00000-0000-0--0-00000-0000-3--3-33333-3333-5--5-55555-3333-|
E---------------------------------------------------3--3-33333-3333-|

Ah-ahhhhhhhhhhhhhhhhhhhhhhh..... ah-ahhhhhhhhhhh... ooo...........

Verse 2:

E-----------------------------------------------------------------|
B-----------------------------------------------------------------|
G-2~~~~~~~~~~~~~~~~~~~~~~~~~~~~~~~5--5-55555-5555-----------------|
D-2~~~~~~~~~~~~~~~~~~~~~~~~~~~~~~~5--5-55555-5555-5--5-55555-5555-|
A-0~~~~~~~~~~~~~~~~~~~~~~~~~~~~~~~3--3-33333-3333-5--5-55555-5555-|
E-------------------------------------------------3--3-33333-3333-|

 Thought I had to tell you.... we came...... from the breeze......
[ Tab from: http://www.guitartabs.cc/tabs/v/vines/amnesia_tab_ver_3.html ]
E-----------------------------------------------------------------|
B-----------------------------------------------------------------|
G-2~~~~~~~~~~~~~~~~~~~~~~~~~~~~~~5--5-55555-5555------------------|
D-2~~~~~~~~~~~~~~~~~~~~~~~~~~~~~~5--5-55555-5555-5--5-55555-5555--|
A-0~~~~~~~~~~~~~~~~~~~~~~~~~~~~~~3--3-33333-3333-5--5-55555-5555--|
E------------------------------------------------3--3-33333-3333--|
  But I don't care forever.... I don't..... need a thing........

Chorus:

E-------------------------------------------------------------------|
B-------------------------------------------------------------------|
G---2--2-22222-2222-2--2-22222-2222-5--5-55555-5555-----------------|
D---2--2-22222-2222-2--2-22222-2222-5--5-55555-5555-5--5-55555-5555-|
A---0--0-00000-0000-0--0-00000-0000-3--3-33333-3333-5--5-55555-3333-|
E---------------------------------------------------3--3-33333-3333-|

Ah-ahhhhhhhhhhhhhhhhhhhhhhh..... ah-ahhhhhhhhhhh... ooo...........

E-------------------------------------------------------------------|
B-------------------------------------------------------------------|
G---2--2-22222-2222-2--2-22222-2222-5--5-55555-5555-----------------|
D---2--2-22222-2222-2--2-22222-2222-5--5-55555-5555-5--5-55555-5555-|
A---0--0-00000-0000-0--0-00000-0000-3--3-33333-3333-5--5-55555-3333-|
E---------------------------------------------------3--3-33333-3333-|

Ah-ahhhhhhhhhhhhhhhhhhhhhhh..... ah-ahhhhhhhhhhh... ooo...........

Bridge:

E------------0-------------0-------------0-------------0----|
B-------0h2-----2------0h2----2------0h2----2------0h2----2-|
G---0h2------------0h2-----------0h2-----------0h2----------|
D-----------------------------------------------------------|
A-----------------------------------------------------------|
E-----------------------------------------------------------|

E-----------0-------------0-------------3-------------3-----|
B-------0h1----1------0h1----1------0h3----3------0h3----3--|
G---0h2-----------0h2-----------0h2-----------0h3-----------|
D-----------------------------------------------------------|
A-----------------------------------------------------------|
E-----------------------------------------------------------|

E------------0-------------0-------------0-------------0----|
B-------0h2-----2------0h2----2------0h2----2------0h2----2-|
G---0h2------------0h2-----------0h2-----------0h2----------|
D-----------------------------------------------------------|
A-----------------------------------------------------------|
E-----------------------------------------------------------|

E-----------0-------------0-------------3-------------3-----|
B-------0h1----1------0h1----1------0h3----3------0h3----3--|
G---0h2-----------0h2-----------0h2-----------0h3-----------|
D-----------------------------------------------------------|
A-----------------------------------------------------------|
E-----------------------------------------------------------|

Solo:

E-----------------------------------------|
B-----------------------------------------|
G---6~~~~~~~~~~~~~~~6-6b--5~~~~~~---------|
D--------------------------------5~~~~~~~-|
A--------------------------------5~~~~~~~-|
E--------------------------------3~~~~~~~-|

E-----------------------------------------|
B-----------------------------------------|
G---6~~~~~~~~~~~~~~~6-6b--5~~~~~~---------|
D--------------------------------5~~~~~~~-|
A--------------------------------5~~~~~~~-|
E--------------------------------3~~~~~~~-|

Outtro:

E--------------------------------------|
B--------------------------------------|
G---6-6-6-6-6-6-6-6--5-5-5-5--4-4-4-4--|
D----7-7-7-7-7-7-7-7--7-7-7-7--5-5-5-5-|
A--------------------------------------|
E--------------------------------------|

E--------------------------------------|
B--------------------------------------|
G---6-6-6-6-6-6-6-6b-5-5-5-5--4-4-4-4--|
D----7-7-7-7-7-7-7----7-7-7-7--5-5-5-5-|
A--------------------------------------|
E--------------------------------------|
   I cannot remember....

E----------|
B----------|
G---2~~~~~-|
D---2~~~~~-|
A---0~~~~~-|
E----------|
Comments