Vines - Amnesia Chords & Tabs

 

Amnesia Chords & Tabs

Vines Chords & Tabs

Version: 2 Type: Tab 0 ratings
1 star 2 stars 3 stars 4 stars 5 stars
comments

Amnesia Tab

----------------------------------------------------------------------------
			     Amnesia - The Vines
----------------------------------------------------------------------------
Tabbed by:Dorian Zdrinc
Email:darkstrife210@yahoo.com

The Vines
Winning Days
Amnesia

Tuning: Standard

  Listen to song for rythym and timing of chords and solo.

  Intro and played later in song.
E--------------0-----------------0----------------0---------------0-----
B---------0h2-----2--------0h2------2--------0h2-----2-------0h2-----2--
G----0h2--------------0h2---------------0h2-------------0h2-------------
D-----------------------------------------------------------------------
A-----------------------------------------------------------------------
E-----------------------------------------------------------------------

E--------------0-----------------0----------------3---------------3-----
B---------0h1-----1--------0h1------1--------0h3-----3-------0h3-----3--
G----0h2--------------0h2---------------0h2-------------0h2-------------
D-----------------------------------------------------------------------
A-----------------------------------------------------------------------
E-----------------------------------------------------------------------

  Verse and Chorus are the same progression of A, C, then G.
[ Tab from: http://www.guitartabs.cc/tabs/v/vines/amnesia_tab_ver_2.html ]
E-----0----0---3------------------------------------------
B-----2----1---0------------------------------------------
G-----2----0---0------------------------------------------
D-----2----2---0------------------------------------------
A-----0----3---2------------------------------------------
E--------------3------------------------------------------

  Solo-I think there is delay on to make the notes last longer.

E------------------------------------------------------------------
B------------------------------------------------------------------
G-----6~~~~~--6-6b--5~~~~~~-------------6~~~~~--6-6b--5~~~~~~------
D------------------------------------------------------------------
A------------------------------------------------------------------
E------------------------------3~~~~~---------------------------3~~

E----------------------------------------------------------------------
B----------------------------------------------------------------------
G---6---6---6---6---6---6---6---6-----5---5---5---5-----4---4---4---4--
D-----7---7---7---7---7---7---7---7-----7---7---7---7-----5---5---5---5
A----------------------------------------------------------------------
E----------------------------------------------------------------------


E------------------------------------------------------------------------
B------------------------------------------------------------------------
G---6---6---6---6---6---6---6---6---6b--5---5---5---5-----4---4---4---4--
D-----7---7---7---7---7---7---7---7-------7---7---7---7-----5---5---5---5
A------------------------------------------------------------------------
E------------------------------------------------------------------------

   End
E----------------------
B---2------------------
G---2------------------
D---2------------------     Tabs By-Dorian
A---0------------------
E----------------------
Comments