Vii Arcano - Anticlockwise Cycle Of Dying Chords & Tabs

 

Anticlockwise Cycle Of Dying Chords & Tabs

Vii Arcano Chords & Tabs

Version: 1 Type: Tab 0 ratings
1 star 2 stars 3 stars 4 stars 5 stars
comments

Anticlockwise Cycle Of Dying Tab

   
Band:  VII Arcano
Album: Inner Deathscapes
Song:  Anticlockwise Cyclo Of Dying

Band info: www.viiarcano.com
Nation: ITALY
Genre: Thrash/Death Metal

Copyright (c)  Warlord Records (2001)
Version 2.0 - (2003)

Transcribed By: Marco MonTagnA/VII Arcano
Email: info@viiarcano.com


.  - palm mute           /  - slide up to
\  - slide down to       ~  - vibrato
h  - hammer on           b  - Bend
p  - pull off            Suffixes for bend
t  - tap                 f  - full bend    h - half bend
ph - pinched harmonic    q  - quarter bend t - tap bend
*  - see comment         ^  - Hold bend    r release bend
x  - Staccato            ~  - vibrato bend
,  - slight palm mute    () - ghost note, sustained note
"  - tremolo note        <> - Trill

Tunning B E A D F# B
(2 & 1/2 steps down)


Intro Riff
     Guitar 1
B ||----------------------------------------------------------|
F#||----------------------------------------------------------|
D ||----------------------------------------------------------|
A ||----------------------------------------------------------|
E ||------------7-----7---6---8------------7----7---6---3-----|
B ||--0--0-0-0---0-0----0---0----0--0-0-0---0-0---0---0-------|
  ||    .  . . .   . .    .   .    .  . . .   . .   .   .
  ||
  || Guitar 2
B ||----------------------------------------------------------|
F#||----------------------------------------------------------|
D ||----------------------------------------------------------|
A ||--2--------------------------2----------------------------|
E ||--2--------------------------2----------------------------|
B ||--0--------------------------0----------------------------|


    Guitar 1
B |---------------------------------------------------------------|
F#|---------------------------------------------------------------|
D |---------------------------------------------------------------|
A |---------------------------------------------------------------|
E |------------7-----7---6---8------------12-10-12----------8-7-8-|
B |--0--0-0-0---0-0----0---0----0--0-0-0-----------0--0-0-0-------|
  |  .  . . .   . .    .   .    .  . . .           .  . . .
  |
  | Guitar 2
B |---------------------------------------------------------------|
F#|---------------------------------------------------------------|
D |---------------------------------------------------------------|
A |--2------------------------------------10-9-10-----------7-6-7-|
E |--2------------------------------------------------------------|
B |--0---------------------------0--0-0-0----------0--0-0-0-------|
                                 .  . . .          .  . . .

Riff 1 [2x]   
     Guitar 1                               
B ||---------------------------------------------------------|
F#||---------------------------------------------------------|
D ||*--------------------------------------------------------|
A ||*--------------------------------------------------------|
E ||------------7-----7--6---8------------7-----7--6---3-----|
B ||--0--0-0-0---0-0---0---0----0--0-0-0---0-0---0---0-------|
  ||  .  . . .   . .   .   .    .  . . .   . .   .   . 
  || Guitar 2
B ||---------------------------------------------------------|
F#||---------------------------------------------------------|
D ||*--------------------------------------------------------|
A ||*--------------------------------------------------------|
E ||------------7-----7--6---8------------7-----7--6---3-----|
B ||--0--0-0-0---0-0---0---0----0--0-0-0---0-0---0---0-------|
      .  . . .   . .   .   .    .  . . .   . .   .   . 
[ Tab from: http://www.guitartabs.cc/tabs/v/vii_arcano/anticlockwise_cycle_of_dying_tab.html ]
    Guitar 1  
B |---------------------------------------------------------------||
F#|---------------------------------------------------------------||
D |--------------------------------------------------------------*||
A |--------------------------------------------------------------*||
E |------------7-----7--6---8------------12-10-12----------8-7-8--||
B |--0--0-0-0---0-0---0---0----0--0-0-0-----------0--0-0-0--------||
  |  .  . . .   . .   .   .    .  . . .           .  . . . 
  | Guitar 2
B |---------------------------------------------------------------||
F#|---------------------------------------------------------------||
D |--------------------------------------------------------------*||
A |--------------------------------------10-9-10-----------7-6-7-*||
E |------------7-----7--6---8-------------------------------------||
B |--0--0-0-0---0-0---0---0----0--0-0-0----------0--0-0-0---------||
     .  . . .   . .   .   .    .  . . .          .  . . . 

Riff 2 [2x]
				                           
B ||----------------------------|---------------------------|
F#||----------------------------|---------------------------|
D ||*---------------------------|---------------------------|
A ||*---------------------5--8--|---------------------5--7--|
E ||----------------------5--8--|---------------------5--7--|
B ||--2--2-2-2--2--2--2---3--6--|-2--2-2-2--2--2--2---3--5--|
      .  . . .  .  .  .           .  . . .  .  . .

B |----------------------------|----------------------------------||
F#|----------------------------|----------------------------------||
D |----------------------------|---------------------------------*||
A |----------------------5--8--|---------------------------------*||
E |----------------------5--8--|-------------0h7h10--0h6h9-0h5h8--||
B |--2--2-2-2--2--2--2---3--6--|---0--0-0-0-----------------------||
     .  . . .  .  .  .             .  . . .


Repeat Riff 1 [2x]
Repeat Riff 2 [2x]

Riff 3 [2x]
     Guitar 1    
B ||---------------------------------------------------|
F#||---------------------------------------------------|
D ||*--------------------------------------------------|
A ||*--9----------2------------------------------------|
E ||---7\---------2----------2-------1-----------------|
B ||--------0-0-0-0----0h1h3---0h1h3---0h1h3-----------|
  ||        . . .     
  ||   Guitar 2             
B ||---------------------------------------------------|
F#||---------------------------------------------------|
D ||*--------------------------------------------------|
A ||*--9----------2------------------------------------|
E ||---7\---------2---------/6------/5-----------------|
B ||--------0-0-0-0----0h1h3---0h1h3---0h1h3-----------|
            . . .            PH      PH

     Guitar 1      
     
B |---------------------------------------------------||
F#|---------------------------------------------------||
D |--------------------------------------------------*||
A |---2----------2-----------------------------------*||
E |--------------2-----------------0h2h3--1--2--3-----||
B |--------0-0-0-0----0-0-0-0h1h3---------------------||
  |        . . .      . . .
  |  
  |    Guitar 2
B |---------------------------------------------------||
F#|---------------------------------------------------||
D |--------------------------------------------------*||
A |---2----------2-----------------------------------*||
E |--------------2-----------------0h2h3--1--2--6-----||
B |--------0-0-0-0----0-0-0-0h1h3---------------------||
           . . .      . . .


Riff 4 [8x]   
   Guitars 1 & 2                            
B ||-------------------------------------||
F#||-------------------------------------||
D ||*-----------------------------------*||
A ||*--------------------------------6--*||
E ||------5-4-----6-5-4---5-4-----6--6---||
B ||----33-3-36353-3-3-333-3-36353-3-4---||
        .. . ..... . . ... . ..... .

    
B ||-------------------------------------||
F#||-------------------------------------||
D ||-------------------------------------||
A ||-2-2---2-2-2---2-2-2---2-2-2--2------||
E ||-2-2---2-2-2---2-2-2---2-2-2--2------||
B ||-0-0---0-0-0---0-0-0---0-0-0--0------||
     . .   . . .   . . .   . . .  .

Repeat Riff 3 [4x]
Repeat Riff 1 [2x]
Repeat Riff 2 [2x]
Repeat Riff 3 [2x]


Riff 4 [8x]
   Guitars 1&2
B ||-------------------------------------||
F#||-------------------------------------||
D ||*--------------------4-------3------*||
A ||*-5--2-2-2-2-2-2-----4-2-----3------*||
E ||--5--2-2-2-2-2-2-----2-2-----1-------||
B ||--3--0-0-0-0-0-0-1-3---0-1-3---0-1---||
         . . . . . . . .     . .   . .

END

Last 4 times guitar r plays "soloing" noise: I won't transcribe it because it's useless...
M.
Comments