Viento En Contra - Te Extrano Chords & Tabs

 

Te Extrano Chords & Tabs

Viento En Contra Chords & Tabs

Version: 1 Type: Tab 0 ratings
1 star 2 stars 3 stars 4 stars 5 stars
comments

Te Extrano Tab






Artist




Artist: Viento en contra
Tile: Te extra├▒o
Transcribed by: Pablo Rubio

Intro (repeat twice):
E|-2-2h3p2-----|---------------2-|
B|-3-------3---|-----3-------3-3-|
G|-2---------2-|---0---0---0---2-|
D|-------------|-----------------|
A|-------------|-3-------2-------|
E|-------------|-----------------|

Intro end (play it once):
E|-2-2h3p2-----|-3-3-3-3-3---3-------3-|
B|-3-------3---|-3-3-3-3-3---3-------3-|
G|-2---------2-|-0-0-0-0-0---0-------0-|
D|-------------|-0-0-0-0-0---0-------0-|
A|-------------|-3-3-3-3-3-2-2-------2-|
E|-------------|----------------3-2--3-|

Then it use this chords (play it twice in verse one):
D---G---Em---A

Then in pre-chorus it goes like this...

1st Guitar:
G---D---A (in second time play it with out "D") G------A
[ Tab from: http://www.guitartabs.cc/tabs/v/viento_en_contra/te_extrano_tab.html ]
2nd Guitar:
(It play the same chords just that it play it in "5" with a little bridge)
                  ****Bridge*****
E|---------------|---------------|---------------|
B|---------------|---------------|---------------|
G|------7-7------|---------------|---------------|
D|-5-5--7-7--7-7-|---------------|-5-5-x-5-5\7-7-|
A|-5-5--5-5--7-7-|---------------|-5-5-x-5-5\7-7-|
E|-3-3-------5-5-|-5-5-8p5-5-5-5-|-3-3-x-3-3\5-5-|

Here is the chorus it is play two times and then you play the bridge:

1st Guitar (electric guitar):
E|----------------------|
B|----------------------|
G|-7--7-----------------|
D|-7--7-7--7/9-9--7-7-5-|
A|-5--5-7--7/9-9--7-7-5-|
E|------5--5/7-7--5-5-3-|
 
2nd Guitar (acoustic guitar):
D---A---Bm---A---G
 
Bridge:
E|-2-2-2--3-3--3-3--2-2-2-2--3--2-2-|-2-2-2--3-3--3-3------3-|
B|-3-3-3--3-3--3-3--3-3-3-3--3--3-3-|-3-3-3--3-3--3-3------3-|
G|-2-2-2--0-0--0-0--2-2-2-2--2--2-2-|-2-2-2--0-0--0-0------0-|
D|--------0-0--0-0------------------|--------0-0--0-0------0-|
A|--------3-3--2-2------------------|--------3-3--2-2------2-|
E|----------------------------------|-----------------3-2--3-|





The 2nd verses are the same chords that in the first one but there are 
Play in "5" (D5---G---Em---A)

Then you play the chorus again
 
And then you play the solo then the 2nd solo and outro; I'll just put the solo fill and then the outro.



Solo fill:
D--- A|------0-| ---A---Bm------G
     E|-2-3--0-|


Outro:

Here you need to play the intro end once and then you end in D

I hope you get the idea soon so enjoy it!!





















Comments