Victor Lopez - Senor Banana Chords & Tabs

 

Senor Banana Chords & Tabs

Victor Lopez Chords & Tabs

Version: 1 Type: Bass Tab

Senor Banana Bass Tab

   
/ !-- ! ! !-! !--    !--   !--! ! ! !--! ! ! !---| <- Senor Banana
~ !-  !!! ! ! !  !   !--!  !--! !!! !--! !!! !---| By: Victor Lopez
/ !-- ! ! !_! !--]   !___! !  ! ! ! !  ! ! ! !  !

Tabbed By: Ethan Haynes -> MeAndMyGuitar13
e-mail: heyhihigerald@yahoo.com
Tuning: (G,D,A,E)

Latin Groove: tempo=152

G---1-3---3---3-5-------5-3-------1-3---3---0---5---5-3-----3-5-3-5---1-3---3-|
D-3---------1---------3-------1-3---------1-------3-------1---------3---------|
A-------1---------1-1-------1---------1-------3---------1-----------------1---|
E-----------------------------------------------------------------------------|


G---0---5---5-3--------0-0---0-2-2-------2-----0-0---------------------------|
D-1-------3-------1-0------0---------1-0---4-0-----4-3-3---3-----0-------3---|
A-----3---------1------------------0---------------------3---1-1---4-3-3-----|
E--------------------------------------------------------------------------1-|

[ Tab from: http://www.guitartabs.cc/tabs/v/victor_lopez/senor_banana_btab.html ]
G-----1-3-------3-5-------1-3-------3-5-------1-3-------3-5-------1-3--------|
D---3---------1---------3---------1---------3---------1---------3---------1--|
A-1-------1-1-------1-1-------1-1-------1-1-------1-1-------1-1-------1-1----|
E----------------------------------------------------------------------------|


S     G---1-3---3-3---0-3---3-3--|
 O    D-3-----------1------------|
  L   A-------1-----------1------| x9
   O  E--------------------------|


G-----3-1---1-3---1-3-----3-1-5-3-1-3-----3-1---1-3---1-3-----3-1-5-3-1-3-----|
D-3-3-----3-----3-----3-3-------------3-3-----3-----3-----3-3-------------0-1-|
A-----------------------------------------------------------------------------|
E-----------------------------------------------------------------------------|


G---0-2-3-5-0---------------------0-3-5-------5-7-----0-3-5-------5-7-----0-3-|
D-3-----------4-3-0-3-2-1-0-2-3-4-----------3-------------------3-------------|
A---------------------------------------3-3-------3-3-------3-3-------3-3-----|
E-----------------------------------------------------------------------------|


G-5-------5-7-----0-3-5-------0-3-5-------0-3-5-------0-3-5---5---5-7-----0-7-|
D-------3-------------------3-----------3-----------3-----------3-------------|
A---3-3-------3-3-------3-3---------3-3---------3-3---------3---------3-3-----|
E-----------------------------------------------------------------------------|


G-5-----------|
D-----3-3-3-3-|
A---3---------|
E-------------|