Vicarbo - Bye Chords & Tabs

 

Bye Chords & Tabs

Vicarbo Chords & Tabs

Version: 1 Type: Tab 0 ratings
1 star 2 stars 3 stars 4 stars 5 stars
comments

Bye Tab

   
Bye: Vicarbo      
tabbed by rob  

intro:
E------------------------------------------------------------------------------------------------------------------------------------------------------------------------------------------------
B------------------------------------------------------------------------------------------------------------------------------------------------------------------------------------------------
G------------------------------------------------------------------------------------------------------------------------------------------------------------------------------------------------
D---------------------------------------------------------------------------------------------------------------------------------------------------------------------------------( two times)
A------------------------------------------------------------------------------------------------------------------------------------------------------------------------------------------------
E-4-0-4-0-5-0-5-0-4-0-4-0-3-0-3-0-----------------------------------------------------------------------------------------------------------------------------------------------------

Riff A:
E-0-0-0-0-0-0-0-0----------------------------------------------------------------------------------------------------------------------------------------------------------------------------
B-3-3-3-3-3-3-3-3---------------------------------------------------------------------------------------------------------------------------------------------------------------------------
G-2-2-2-2-2-2-2-2---------------------------------------------------------------------------------------------------------------------------------------------------------------------------
D---------------------3-3-3-3-x-5(-5-5-5-5-)----------------------------------------------------------------------------------------------------------------------------------------------
A---------------------3-3-3-3-x-5(-5-5-5-5-)----------------------------------------------------------------------------------------------------------------------------------------------
E---------------------3-3-3-3-x-5(-5-5-5-5-)----------------------------------------------------------------------------------------------------------------------------------------------
			              Pause at ( on the fourth time played
Riff B                                                
Partially palm muted
E-------------------------------------------------------------------------------------------------------------------------------------------------------------------------------------------------
B-------------------------------------------------------------------------------------------------------------------------------------------------------------------------------------------------
G---------------------------------------------------------------------------------------------------------------------------------------------------------------------------------- (four times)
D-3-3-3-3-3-3- / 5-5-5-5-5-5- / 7-7-7-7-7-7- / 8-8-8-8-8-8------------------------------ ----------------------------------------------------------------------------------- --- -  
A-3-3-3-3-3-3- / 5-5-5-5-5-5- / 7-7-7-7-7-7- / 8-8-8-8-8-8-----------------------------------------------------------------------------------------------------------------------
E-3-3-3-3-3-3- / 5-5-5-5-5-5- / 7-7-7-7-7-7- / 8-8-8-8-8-8------------------------------------------------------------------------------------------------------------------------

chorus:
palm  muted
E--------------------------------------------------------------------------------------------------------------------------------------------------------------------------------------------------
B-------------------------------------------------------------------------------------------------------------------------------------------------------------------------------------------------
G------------------------------------------------------------------------------------------------------------------------------------------------------------------------------------------------
D- 5-5-5-5-5-5- 7-7-7-7-7-7- 5-5-5-5-5-5- 3-3-3-3-3-3 ----------------------------------------------------------------------------------------------------------------(four times)
A- 5-5-5-5-5-5- 7-7-7-7-7-7- 5-5-5-5-5-5- 3-3-3-3-3-3-----------------------------------------------------------------------------------------------------------------------------
E- 5-5-5-5-5-5- 7-7-7-7-7-7- 5-5-5-5-5-5- 3-3-3-3-3-3-----------------------------------------------------------------------------------------------------------------------------

[ Tab from: http://www.guitartabs.cc/tabs/v/vicarbo/bye_tab.html ]
Riff A:
E-0-0-0-0-0-0-0-0---------------------------------------------------------------------------------------------------------------------------------------------------------------------------
B-3-3-3-3-3-3-3-3---------------------------------------------------------------------------------------------------------------------------------------------------------------------------
G-2-2-2-2-2-2-2-2---------------------------------------------------------------------------------------------------------------------------------------------------------------------------
D---------------------3-3-3-3-x-5(-5-5-5-5-)-----------------------------------------------------------------------------------------------------------------------------------------------
A---------------------3-3-3-3-x-5(-5-5-5-5-)-----------------------------------------------------------------------------------------------------------------------------------------------
E---------------------3-3-3-3-x-5(-5-5-5-5-)-----------------------------------------------------------------------------------------------------------------------------------------------
					Pause at ( on the fourth time played

Riff B                                                
Partially palm muted
E------------------------------------------------------------------------------------------------------------------------------------------------------------------------------------------------
B------------------------------------------------------------------------------------------------------------------------------------------------------------------------------------------------
G--------------------------------------------------------------------------------------------------------------------------------------------------------------------------------------- (four times)
D-3-3-3-3-3-3- / 5-5-5-5-5-5- / 7-7-7-7-7-7- / 8-8-8-8-8-8--------------------------------------------------------------------------------------------------------------------- -- 
A-3-3-3-3-3-3- / 5-5-5-5-5-5- / 7-7-7-7-7-7- / 8-8-8-8-8-8-------------------------------------------------------------------------------------------------------------------------
E-3-3-3-3-3-3- / 5-5-5-5-5-5- / 7-7-7-7-7-7- / 8-8-8-8-8-8-------------------------------------------------------------------------------------------------------------------------


chorus:
E------------------------------------------------------------------------------------------------------------------------------------------------------------------------------------------------
B-----------------------------------------------------------------------------------------------------------------------------------------------------------------------------------------------
G------------------------------------------------------------------------------------------------------------------------------------------------------------------------------------------------
D- 5-5-5-5-5-5- 7-7-7-7-7-7- 5-5-5-5-5-5- 3-3-3-3-3-3 ---------------------------------------------------------------------------------------------------------------(four times)
A- 5-5-5-5-5-5- 7-7-7-7-7-7- 5-5-5-5-5-5- 3-3-3-3-3-3-----------------------------------------------------------------------------------------------------------------------------
E- 5-5-5-5-5-5- 7-7-7-7-7-7- 5-5-5-5-5-5- 3-3-3-3-3-3-----------------------------------------------------------------------------------------------------------------------------

Riff B                                                
Partially palm muted
E-------------------------------------------------------------------------------------------------------------------------------------------------------------------------------------------------
B-------------------------------------------------------------------------------------------------------------------------------------------------------------------------------------------------
G--------------------------------------------------------------------------------------------------------------------------------------------------------------------------------------- (four times)
D-3-3-3-3-3-3- / 5-5-5-5-5-5- / 7-7-7-7-7-7- / 8-8-8-8-8-8-----------------------------------------------------------------------------------------------------------------------  
   A-3-3-3-3-3-3- / 5-5-5-5-5-5- / 7-7-7-7-7-7- / 8-8-8-8-8-8-------------------------------------------------------------------------------------------------------------------------
E-3-3-3-3-3-3- / 5-5-5-5-5-5- / 7-7-7-7-7-7- / 8-8-8-8-8-8-------------------------------------------------------------------------------------------------------------------------

intro:
E-----------------------------------------------------------------------------------------------------------------------------------------------------------------------------------------------
B-----------------------------------------------------------------------------------------------------------------------------------------------------------------------------------------------
G-----------------------------------------------------------------------------------------------------------------------------------------------------------------------------------------------
D-------------------------------------------------------------------------------------------------------------------------------------------------------------------------------------( four times)
A-----------------------------------------------------------------------------------------------------------------------------------------------------------------------------------------------
E-4-0-4-0-5-0-5-0-4-0-4-0-3-0-3-0---------------------------------------------------------------------------------------------------------------------------------------------------

thats about it. e-mail me with comments: Znat4hq@aol.com
Comments