Vex Red - Cant Smile Chords & Tabs

 

Cant Smile Chords & Tabs

Vex Red Chords & Tabs

Version: 3 Type: Tab 0 ratings
1 star 2 stars 3 stars 4 stars 5 stars
comments

Cant Smile Tab

Vex Red, Can't Smile.
 Tabbed by Myke, A_Violet_Fluid@hotmail.com.
  
VEX RED
CAN'T SMILE


Drop D Tuning

Intro/Chorus (Guitar 1):

|---------------|
|---------------|
|--8-8-8-7-7-7--|
|---------------|
|---------------|
|---------------| 

Then:

|---------------------|
|---------------------|
|---8--8--8--7--7--7--|
|--10-10-10-10-10-10--|
|---------------------|
|---------------------| 

Intro/Chorus (Guitar 2):

|-----------------------------------|
|-----------------------------------|
|-----------------------------------|
|--4-4-4-4-4-4-4-4--/6-6-6-6----7\\--|
|--4-4-4-4-4-4-4-4--/6-6-6-6----7\\--|
|--4-4-4-4-4-4-4-4--/6-6-6-6----7\\--|

|-----------------------------------|
|-----------------------------------|
|-----------------------------------|
|--2-2-2-2-2-2-2-2--/7----------6\\--|
|--2-2-2-2-2-2-2-2--/7----------6\\--|
|--2-2-2-2-2-2-2-2--/7----------6\\--|

Bridge (\"Just Smile...\"):

|-----------------------|
|-----------------------|
|-----------------------|
|--12-12------12-10-12--|
|-----------------------|
|-----------------------| 

This sound is actually a keyboard of some sort
But it sounds ok if you play it like this.

End:
[ Tab from: http://www.guitartabs.cc/tabs/v/vex_red/cant_smile_tab_ver_3.html ]
|-------------------------|
|-------------------------|
|--5--------5----------5--|
|----5--8--------5-5-5----|
|-------------------------|
|-------------------------| 

This is also a keyboard but, again,
It works just as well on guitar

*******************************************************************
Lyrics:

Keep it real
I know that something is wrong with you
I am too impatient
To wait for someting new
Why can't i say what i need you to hear
*My hearts a dream*
I know that you are here
You are here

You'll be there to
Laugh you're head off when i fall
I will go
With them to look for something more
Searching to change
Will you identify
Look at me close
You'll see that i can't smile

I can't smile

\"Now smile...\"
\"Smile...\"
\"Why?\"
\"Just do it...\"
\"I'm afraid i can't smile without a reason...\"
\"Smile...\"
\"But what is there to smile about...?\"
\"Just do it...\"
\"Why...?\"

You think you're so good
When your toking
And fucked
Your smoking
Thats not what it's all about

Can't Smile

*******************************************************************
*Lyrics may be wrong in certain places...
Hey, i'm only human.

VEX RED RULE!!!
A_Violet_Fluid@hotmail.com
 
:: Ultimate Guitar Archive :: 
http://www.ultimate-guitar.com 



Comments