Verve Pipe - The Freshmen Chords & Tabs

 

The Freshmen Chords & Tabs

Verve Pipe Chords & Tabs

Version: 4 Type: Tab 0 ratings
1 star 2 stars 3 stars 4 stars 5 stars
comments

The Freshmen Tab

TUNING: STANDARD
CAPO: 2ND FRET

ALL TABS RELATIVE TO CAPO


0:00 - 0:39
e|----------0--------------------3-----------|
B|------3--------3-----------3---------------|
G|----2---2----2-----------2---2-------------|
D|--0----------------------------------------|
A|-------------------------------------------|
E|---------------------5---------------------|

e|-------------------------------------------|
B|------------3--------------0---------------|
G|--------4--------------0-------------------|
D|------4---4----------0---0-----------------|
A|---2-----------0---------------------------|
E|------------------5------------------------|
REAPEAT THESE TWO TABS 4X.


0:39 - 0:58
e|-------------------------------------------|
B|-------------------------------0-----------|
G|-----4----------2----------0---------------|
D|---4---4------2---2------0---0-------------|
A|-2----------0------------------------------|
E|----------------------3--------------------|
REPEAT 4X


0:58 - 1:47
e|----------0--------------------3-----------|
B|------3--------3-----------3---------------|
G|----2---2----2-----------2---2-------------|
D|--0----------------------------------------|
A|-------------------------------------------|
E|---------------------3---------------------|

e|-------------------------------------------|
B|------------3--------------0---------------|
G|--------4--------------0-------------------|
D|------4---4----------0---0-----------------|
A|---2-----------0---------------------------|
E|------------------3------------------------|
REPEAT 5X


1:47 - 2:06
e|-------------------------------------------|
B|-------------------------------0-----------|
G|-----4----------2----------0---------------|
D|---4---4------2---2------0---0-------------|
A|-2----------0------------------------------|
E|----------------------3--------------------|
REPEAT 4X


2:06 - 2:25
e|----------0--------------------3-----------|
B|------3--------3-----------3---------------|
G|----2---2----2-----------2---2-------------|
D|--0----------------------------------------|
A|-------------------------------------------|
E|---------------------3---------------------|

e|-------------------------------------------|
B|------------3--------------0---------------|
G|--------4--------------0-------------------|
D|------4---4----------0---0-----------------|
A|---2-----------0---------------------------|
E|------------------3------------------------|
REPEAT 2X

[ Tab from: http://www.guitartabs.cc/tabs/v/verve_pipe/the_freshmen_tab_ver_4.html ]
THIS PART SOUNDS LIKE A VIOLIN TO ME, BUT HERE'S HOW TO PLAY IT ON GUITAR
HEAVY DISTORTION
2:25 - 2:44
e|-------------------------------------------|
B|----------3---3----------------------------|
G|------------2------------------------------|
D|--------0----------------------------------|
A|-------------------------------------------|
E|-------------------------------------------|
REPEAT 14X


2:48 - 3:06
e|----------0--------------------3-----------|
B|------3--------3-----------3---------------|
G|----2---2----2-----------2---2-------------|
D|--0----------------------------------------|
A|-------------------------------------------|
E|---------------------3---------------------|

e|-------------------------------------------|
B|------------3--------------0---------------|
G|--------4--------------0-------------------|
D|------4---4----------0---0-----------------|
A|---2-----------0---------------------------|
E|------------------3------------------------|
REPEAT 2X


3:06 - 3:25
e|-------------------------------------------|
B|----------3---3----------------------------|
G|------------2------------------------------|
D|--------0----------------------------------|
A|-------------------------------------------|
E|-------------------------------------------|
REPEAT 18X


3:25 - 3:59
e|----------0--------------------3-----------|
B|------3--------3-----------3---------------|
G|----2---2----2-----------2---2-------------|
D|--0----------------------------------------|
A|-------------------------------------------|
E|---------------------3---------------------|

e|-------------------------------------------|
B|------------3--------------0---------------|
G|--------4--------------0-------------------|
D|------4---4----------0---0-----------------|
A|---2-----------0---------------------------|
E|------------------3------------------------|
REPEAT 3X (3RD TIME ONLY PLAY TOP LINE)


3:59 - 4:03
e|-------------------------------------------|
B|-------------------------------0-----------|
G|-----4----------2----------0---------------|
D|---4---4------2---2------0---0-------------|
A|-2----------0------------------------------|
E|----------------------3--------------------|
1X


4:03 - 4:23
e|----------0--------------------3-----------|
B|------3--------3-----------3---------------|
G|----2---2----2-----------2---2-------------|
D|--0----------------------------------------|
A|-------------------------------------------|
E|---------------------3---------------------|

e|-------------------------------------------|
B|------------3--------------0---------------|
G|--------4--------------0-------------------|
D|------4---4----------0---0-----------------|
A|---2-----------0---------------------------|
E|------------------3------------------------|
2X
Comments