Verve Pipe - Hero Chords & Tabs

 

Hero Chords & Tabs

Verve Pipe Chords & Tabs

Version: 1 Type: Tab 0 ratings
1 star 2 stars 3 stars 4 stars 5 stars
comments

Hero Tab

   
very cool song.  worked out this one with my teacher.  have fun, enjoy.

verse:
e-------------------------------------------|
b-------------------------------------------|
G-9-9--x-x----------------------------------|
D-x-x--x-x--6-6--x-x--9-9--x-x--9-9--x-x----|
A-7-7--x-x--7-7--x-x--7-7--x-x--7-7--x-x----|
E---------------------5-5--x-x--5-5--x-x----|

e------------------------------------|
b-5----------------------------------|
G---6---repeat through until chorus--|
D-----7------------------------------|
A------------------------------------|
E------------------------------------|
...great, with all eyes upon me....

^chord might not be exact - but brian is playing some kind of an appregio a.

[ Tab from: http://www.guitartabs.cc/tabs/v/verve_pipe/hero_tab.html ]
chorus:
  g               F#              B                A
e-------------------------------------------------------------|
b-------------------------------------------------------------|
G-------------------------------------------------------------|
D-------------------------------------------------------------|
A-5-5-x-x-5-5-x-x-4-4-x-x-4-4-x-x-9-9-x-x-9-9-x-x-7-7-x-x-7-7-|
E-3-3-x-x-3-3-x-x-2-2-x-x-2-2-x-x-7-7-x-x-7-7-x-x-5-5-x-x-5-5-|

then, the last time through on each chorus:

g                 F#
e-------------------|
b-------------------|
G-------------------|
D-------------------|
A-5-5-x-x-5-5-x-x-4-|
E-3-3-x-x-3-3-x-x-2-|


then the solo comes after second chorus:
  B                              A
e-------------------------------------------------|
b-----------------10-----9~-----9~-8-8---8p7------|
G-----9p8---9p8------9------9------7-7-------7----|
D-7s9-----9-----9------9------9--------7-------7--|
A-------------------------------------------------|
E-------------------------------------------------|


there you go - that's all of it, except for a few fills - but those are mostly just 
on the chorus chords.  good luck, have fun.

-verve pipe retains the possibility of a new release coming spring 2006!!!

-drew
Comments