Verve Pipe - Freshmen Chords & Tabs

 

Freshmen Chords & Tabs

Verve Pipe Chords & Tabs

Version: 4 Type: Tab

Freshmen Tab

verse:

E---------------|---------5-|---------------|---|---------0-|
B---------7-----|-----------|---------5-----|---|-----------|
G-----9-----9---|-----6-----|-----6-----6---|---|-----2-----|
D---9---9-----9-|---7---7---|---6---6-----6-|---|---2---2---|
A-7-------------|-----------|-4-------------|-2-|-0---------|
E---------------|-5---------|---------------|---|-----------|
[ Tab from: http://www.guitartabs.cc/tabs/v/verve_pipe/freshmen_tab_ver_4.html ]
Pre-Chorus:

E---------|---------|---------0-|
B---------|---------|-----------|
G-----6---|-----4---|-----2-----|
D---6---6-|---4---4-|---2---2---|
A-4-------|-2-------|-0---------|
E---------|---------|-----------|

Chorus is the same except for the last section but it isnt hard to
figure out at all. At the one part of the song when he is yelling
"yeeeah..." he is just strumming through those chords.