Verve Pipe - Freshmen Chords & Tabs

 

Freshmen Chords & Tabs

Verve Pipe Chords & Tabs

Version: 3 Type: Bass Tab 0 ratings
1 star 2 stars 3 stars 4 stars 5 stars
comments

Freshmen Bass Tab

Song: Freshmen
Artist: the Verve Pipe
Album: Villians
Original Tabber: Ponies4208@aol.com
Correctional Tabber: the master (marioc 12@aol.com)

this isn't really a correction as much as it is an addition

Bass comes in after a while and its this (verse)
[ Tab from: http://www.guitartabs.cc/tabs/v/verve_pipe/freshmen_btab_ver_3.html ]
Riff 1a
G:|----------------------------------------|
D:|----------------------------------------|
A:|---7--7-7-------------4--4-4------------|
E:|----------7-5--5-5-----------7-5--5-5---|

this is the chorus

Riff 1b
G:|----------------------------------------|
D:|----------------------------------------|
A:|---7*-----------------4*----------------|
E:|-------7*--5*-------------7*--5*--------|

Here is the bridge as far as i could tell:

Riff 2
G:|--------------------------|
D:|*------------------------*|
A:|*-----------7------------*|
E:|----4--4-5-----7-7---5----|


Peace.
Comments