Verve - Hero Chords & Tabs

 

Hero Chords & Tabs

Verve Chords & Tabs

Version: 1 Type: Tab 0 ratings
1 star 2 stars 3 stars 4 stars 5 stars
comments

Hero Tab

   
T1: Jared Heiner, blink233@hotmail.com, The Verve Pipe, Hero, ????????? 

 S1: This is my first tab so sorry if I suck, this song kicks ass, 
 Intro and Verse 
 e 
 b 
 g 
 d------------------------------------------/9 9 9 9 
 a----------/7 7----/11 11------------0 0 0 0 
 E-----------0 0------0 0 

 Other part of the verse play 2X 
 e-------------0------------0---------------------------------0------ 
 b----3-------------2----------2--------------------3-------------2 
 g----0-------------0-------------------------------0-------------0 
 d----2-------------2-----------------2-------------2-------------2 
 a----0-------------0-------------------------------0-------------0 
 E---------------------------------------------------------------------- 

 Chorus 

 G5, F#, B5, Asus2 end chorus on F#7add4 

 G5-355 F#-244322 B5-x244 Asus2-xx024 
 Interlude 
[ Tab from: http://www.guitartabs.cc/tabs/v/verve/hero_tab.html ]
 e--0-----0---------0-------------5----------------4---------------4--------3-----3------------3-----2-----0--------
 b--2/4-----4----------4---------------5----------------5-------------------3----------3-------------3-----------3--
 g--2/4---------4-----------4----------------4-----------------4------------2----------2------------------------------
 d-----------------------------------------------------------------------------------------------------------------------------
 a-----------------------------------------------------------------------------------------------------------------------------
 E-----------------------------------------------------------------------------------------------------------------------------


 2nd time end with 

 b-----3--3---3---3--2--0 
 g-----2--2---2---2----------2 

 The little lead dealy during the last chorus goes something like this 

 g---8 bent up 1/2 step and held for a couple seconds 
 d-------------9 

 It pretty much alternates with that, just listen and you'll figure it out 
 Corrections or anything I missed email blink233@hotmail.com 
Comments