Veruca Salt - Born Entertainer Acoustic Chords & Tabs

 

Born Entertainer Acoustic Chords & Tabs

Veruca Salt Chords & Tabs

Version: 1 Type: Chords 0 ratings
1 star 2 stars 3 stars 4 stars 5 stars
comments

Born Entertainer Acoustic Chords

   
Born Entertainer (acoustic)

Tuning: Standard

Intro/verse:
  Dsus2				   Cadd9
e|---------0---------------0---------------0---------------0---------
B|-----3-----3---3-----3-----3---------3-----3---3-----3-----3-------
G|---2---2-----2-----2---2-----------0---0-----0-----0---0-----0-----
D|-0---------------0-------------------------------------------------
A|-----------------------------0-2-3---------------0-------------0-2-
E|-------------------------------------------------------------------
[ Tab from: http://www.guitartabs.cc/tabs/v/veruca_salt/born_entertainer_acoustic_crd.html ]
  G6/B			       Gm6
e|-------0---------------0-------------0---------------0-----------
B|---3-----3---3-----3-----3-------3-----3---3-----3-----3---------
G|-0---0-----0-----0---0---------0---0-----0-----0---0-----0-------
D|---------------------------------------------------------------0-
A|---------------------------2-1---------------1-------------2-3---
E|-----------------------------------------------------------------

Dsus2			      Cadd9
This couldn't get any better, she didn't get it, God bless her
G6/B			 Gm6
I'll never be any saner, I'm a born entertainer
	  C		  G
yeah yeah yeah, yeah yeah yeah
	  C		  G
yeah yeah yeah, yeah yeah yeah

You couldn't be any cuter, you couldn't be any cooler
You'll never be any saner, 'cause you're a born entertainer

yeah yeah yeah, yeah yeah yeah
yeah yeah yeah, yeah yeah yeah

You couldn't get any radder, you couldn't be any badder
You couldn't be any lamer, you're a born entertainer
Comments