Vertigo - Hazard Chords & Tabs

 

Hazard Chords & Tabs

Vertigo Chords & Tabs

Version: 1 Type: Bass Tab 0 ratings
1 star 2 stars 3 stars 4 stars 5 stars
comments

Hazard Bass Tab

Bass Solo

 G [---------------3------------------------------------------------|
 D [--0-0-3-0-3------0-0-3-0-3--------------------------------------|
 A [---------------------------------3------------------------------|   X8
 E [----------------------------------------------------------------|

G [-----------------------------------------------------------------|
D [-----------------------------------------------------------------|
A [---55555555------------------------------------------------------|    X2
E  [----------------55----77----55----77----------------------------|

G [-----------------------------------------------------------------|
D [-----------------------------------------------------------------|
A [---55555555---77777777---99999999--------------------------------|    X1
E  [----------------------------------------------------------------|

G [-----------------------------------------------------------------|
D [-----------------------------------------------------------------|
A [---55555555------------------------------------------------------|    X2
E  [----------------55----77----55----77----------------------------|

G [----------------------------------------------------------------------|
D [----------------------------------------------------------------------|
A [---55555555---77777777---99999999-------------------------------------|    X1
E [----------------------------------------------------------------------|

G [----------------------------------------------------------------------|
D [---0000000000000000---------------------------------------------------|
A [----------------------------------------------------------------------|    X1
E [----------------------------------------------------------------------|
[ Tab from: http://www.guitartabs.cc/tabs/v/vertigo/hazard_btab.html ]
G [---------------3-------------------------------------------------|
D [--0-0-3-0-3------0-0-3-0-3---------------------------------------|
A [---------------------------------3-------------------------------|    X2
E [-----------------------------------------------------------------|

G [-----------------------------------------------------------------|
D [-----------------------------------------------------------------|
A [---55555555------------------------------------------------------|    X2
E [----------------55----77----55----77-----------------------------|

G [-----------------------------------------------------------------|
D [-----------------------------------------------------------------|
A [---55555555---77777777---99999999--------------------------------|    X1
E [-----------------------------------------------------------------|


G [-----------------------------------------------------------------|
D [-----------------------------------------------------------------|
A [---55555555------------------------------------------------------|    X2
E  [----------------55----77----55----77----------------------------|

G [-----------------------------------------------------------------|
D [-----------------------------------------------------------------|
A [---55555555---77777777---99999999--------------------------------|    X1
E  [----------------------------------------------------------------|

G [-----------------------------------------------------------------|
D [---00000000000000000000000000000000------------------------------|
A [-----------------------------------------------------------------|    X1
E  [----------------------------------------------------------------|

G [---------------3-------------------------------------------------|
D [--0-0-3-0-3------0-0-3-0-3---------------------------------------|
A [---------------------------------3-------------------------------|    X4
E  [----------------------------------------------------------------|
Comments