Vertical Horizon - Youre A God Chords & Tabs

 

Youre A God Chords & Tabs

Vertical Horizon Chords & Tabs

Version: 1 Type: Chords 1 rating
1 star 2 stars 3 stars 4 stars 5 stars
comments

Youre A God Chords

   
Song: You're a god (revised)
Artist: Vertical Horizon
CD: Everything You Want 
Transcribed by Chris Dupont

If you want to play it the easy way, play with capo on third fret, and play the chords in the parentheses (...).
I'm sorry if the words aren't right.

Verse 1:
(G)            (Em)
Bb              Gm                  
I gotta be honest I think you know
(D)                       (C)
F                          Eb
We're covered in lies and that's okay.
(G)                    (Em)
Bb                      Gm
But somewhere beyond this I know
(D)                  (C)
F                     Eb
I hope I can find the words to say


Pre-Chorus:
(Eb)  (F)
F#    Ab
Never again, no
(Eb)      (F)
F#        Ab
No, never again


Chorus:
(G)                   (Em)
Bb                     Gm 
'Cause you're a god and I am not 
  (D)                 (C) 
   F                   Eb
And I just thought that you would know
(G)             (Em)         (D)                (C)       (G2)
Bb               Gm           F                  Eb        Bb2
You're a god and I am not and I just thought I'd let you go


Verse 2 (same as verse 1)
Pre chorus 
Chorus

Instrumental:Guitars 1 and 2 play riffs 1 and 2 simultaneously.
[ Tab from: http://www.guitartabs.cc/tabs/v/vertical_horizon/youre_a_god_crd.html ]
Without capo:
GUITAR 1   
e-----------------------------------------------------------------]
b-4-3-------------------------------------------------------------]
g------5-5-3--------------------10--8--7--------8--7-10-----------]
d--------------6---6--8h10po8----x--x--x--8-8---x--x--x-----------]
a--------------------------------8--6--5--x-x---6--5--8-----------]
e-----------------------------------------6-6---------------------]
GUITAR 2 
e-----------------------------------------------------------------]
b-----------------------------------------------------------------]
g-5-----------------------------10--8--7--------8--7-10-----------]
d-5----6--------------------8-8--x--x--x--8-8---x--x--x-----------]
a-3----6--------------------8-8--8--6--5--8-8---6--5--8-----------]
e------4--------------------6-6-----------6-6---------------------]
Both guitars play their riff twice.

With capo:
GUITAR 1   
e-----------------------------------------------------------------]
b-1-0-------------------------------------------------------------]
g------2-2-0---------------------7--5--4--------5--4--7-----------]
d--------------3---3--5h7po5-----x--x--x--5-5---x--x--x-----------]
a--------------------------------5--3--2--x-x---3--2--5-----------]
e-----------------------------------------3-3---------------------]
GUITAR 2 
e-----------------------------------------------------------------]
b-----------------------------------------------------------------]
g-2------------------------------7--5--4--------5--4--7-----------]
d-2----3--------------------5-5--x--x--x--5-5---x--x--x-----------]
a-0----3--------------------5-5--5--3--2--5-5---3--2--5-----------]
e------1--------------------3-3-----------3-3---------------------]
Both guitars play their riff twice.


Then play verse 3(same chords AND words as verse 1)
And after thet play the chorus 2x.

End:
(G2)
Bb2.....(let ring)
(G)
Bb...........(on acoustic guitar)
Comments