Vertical Horizon - We Are Chords & Tabs

 

We Are Chords & Tabs

Vertical Horizon Chords & Tabs

Version: 3 Type: Tab 0 ratings
1 star 2 stars 3 stars 4 stars 5 stars
comments

We Are Tab

Vertical Horizon - We Are

Band: Vertical Horizon
Title: We Are
Transcribed by: Chris Foskey
Tuning: Eb (1/2 step down)

IF you are not playing with the CD, you can play it in standard and it
will still sound alright.

Intro:
eb -2-2-2-2-2-2-2-2--0-0-0-0-0-0-0-0-------------------3-3-3-3-3-3-3-3------|
Bb -3-3-3-3-3-3-3-3--2-2-2-2-2-2-2-2-------------------3-3-3-3-3-3-3-3------|
Gb -4-4-4-4-4-4-4-4--2-2-2-2-2-2-2-2--0-0-0-0-0-0-0-0--0-0-0-0-0-0-0-0------|
Db -4-4-4-4-4-4-4-4--2-2-2-2-2-2-2-2--2-2-2-2-2-2-2-2--0-0-0-0-0-0-0-0------|
Ab -2-2-2-2-2-2-2-2--0-0-0-0-0-0-0-0--2-2-2-2-2-2-2-2--2-2-2-2-2-2-2-2------|
Eb -----------------------------------0-0-0-0-0-0-0-0--3-3-3-3-3-3-3-3------|
[ Tab from: http://www.guitartabs.cc/tabs/v/vertical_horizon/we_are_tab_ver_3.html ]
Verse:
eb -----0-----0-----5-----5-----5p0--------0-----0-----7-----7-----7--------|
Bb ---3-----2-----3-----3-----3----------3-----2-----5-----5-----5----------|
Gb -4-----2-----4-----4-----4----------4-----2-----4-----4-----4------------|
Db -------------------------------------------------------------------------|
Ab -------------------------------------------------------------------------|
Eb -------------------------------------------------------------------------|

Chorus: same chords as intro. listen to song for strum pattern
eb -2-2-2-2-2-2-2-2--0-0-0-0-0-0-0-0-------------------3-3-3-3-3-3-3-3------|
Bb -3-3-3-3-3-3-3-3--2-2-2-2-2-2-2-2-------------------3-3-3-3-3-3-3-3------|
Gb -4-4-4-4-4-4-4-4--2-2-2-2-2-2-2-2--0-0-0-0-0-0-0-0--0-0-0-0-0-0-0-0------|
Db -4-4-4-4-4-4-4-4--2-2-2-2-2-2-2-2--2-2-2-2-2-2-2-2--0-0-0-0-0-0-0-0------|
Ab -2-2-2-2-2-2-2-2--0-0-0-0-0-0-0-0--2-2-2-2-2-2-2-2--2-2-2-2-2-2-2-2------|
Eb -----------------------------------0-0-0-0-0-0-0-0--3-3-3-3-3-3-3-3------|


Bridge:
eb --------------------------|
Bb -3--3--2--2-2-2-2-2-2-----|
Gb -2--0--2--2-2-2-2-2-2-----| x4
Db -0--0--2--2-2-2-2-2-2-----|
Ab -0--2--0--0-0-0-0-0-0-----|
Eb -2--3---------------------|
Comments