Vertical Horizon - We Are Chords & Tabs

 

We Are Chords & Tabs

Vertical Horizon Chords & Tabs

Version: 1 Type: Tab 0 ratings
1 star 2 stars 3 stars 4 stars 5 stars
comments

We Are Tab

   
We Are 
Vertical Horizon
From the CD Everything You Want
Transcribed by Chris Dupont

CAPO 1
All chords and tab relative to capo

INTRO...

B5  A5  E5         G5
          We Are.....We Are
B5  A5  E5         G5
          We Are.....We Are

VERSE RIFFS

Here's how this works--electric guitar plays the electric verse part once before the verse starts (except in verse 3).  Then, continue to play through verse.  In vs. 1, acoustic comes in after the first half of the verse.  For the other two verses, the acoustic plays through the whole verse. 

Electric Part
e-----2-------0-------5-----5-----5--0---]
b-0-0-------0------3------3-----3--------]
g---------2-----2-------2-----2----------]
d----------------------------------------]
a----------------------------------------]
e----------------------------------------]

e-----2-------0-------7-----7-----7--0---]
b-0-0-------0------5------5-----5--------]
g---------2-----4-------4-----4----------]
d----------------------------------------]
a----------------------------------------]
e----------------------------------------]

Acoustic Part
e-----2-------0-------o-----0-----0--0---]
b-0-0-------0------3------3-----3--------]
g---------2-----2-------2-----2----------]
d----------------------------------------]
a----------------------------------------]
e----------------------------------------]


e-----2-------0-------0-----0-----0--0---]
b-0-0-------0------5------5-----5--------]
g---------2-----4-------4-----4----------]
d----------------------------------------]
a----------------------------------------]
e----------------------------------------]


Verse 1

Take a listen through the window
Take a lover on the radio
Ask her if she's got an answer
Do you know
Time enough to get a good one
Though they never seem to get done
I am standing for a reason
Do you know
[ Tab from: http://www.guitartabs.cc/tabs/v/vertical_horizon/we_are_tab.html ]
B5                  A5
'Cause I don't know how
              E5
I don't know where
        G5    
We are    We Are
B5               A5
And I don't know why
           E5 
Don't know if 
         G5        A5     
We Are    We Are.........  


Verse 2
Seven days and not a return
Seven lives and not a thing learned
Take a lover on the highway
Do you know
Cause' I am sleeping on a time bomb
And I am witing for the light to come
You and I could get away now 
Do you know

B5                  A5
'Cause I don't know how
              E5
I don't know where
        G5    
We are    We Are
B5               A5
And I don't know why
           E5 
Don't know if 
         G5             
We Are    We Are.........  

F#5  G5  A5
           I get up sometimes
F#5  G5  A5
           Like somebody else
F#5  G5  A5
           Am I just wasting time
F#5  G5  A5
           With somebody else


Verse 3
Take a listen through the window
Take a lover on the radio
Ask her if she's got an answer
Do you know

B5                  A5
'Cause I don't know how
              E5
I don't know where
        G5    
We are    We Are
B5               A5
And I don't know why
           E5 
Don't know if 
         G5        A5     
We Are    We Are.........

B5                  A5
And I don't know how
              E5        G5
I don't know where.......
            
(We Are)
B5               A5
And I don't know why
        E5    G5
I know if-if-if (We are)

B5  A5  E5  G5 2x   B2-B2
                 


 
Comments