Vertical Horizon - Everything You Want Chords & Tabs

 

Everything You Want Chords & Tabs

Vertical Horizon Chords & Tabs

Version: 6 Type: Tab 0 ratings
1 star 2 stars 3 stars 4 stars 5 stars
comments

Everything You Want Tab

   
-------------------------------------------------------------------------------
Everything You Want  Vertical Horizon
-------------------------------------------------------------------------------
Tabbed by: CheezWeezulRGM
Email: CheezWeezulRGM1@hotmail.com

Tuning: Standard
[ Tab from: http://www.guitartabs.cc/tabs/v/vertical_horizon/everything_you_want_tab_ver_6.html ]
Intro: play over verse also
e|-----------------------------3-2-------------------------------------------|
B|-3-5-5-3-5-5-3-5-3-5-5-3-5-5-----3-5-5-3-5-5-3-5-3-5-5-3-5-5-1-0-----------|
G|---------------------------------------------------------------------------|
D|---------------------------------------------------------------------------|
A|---------------------------------------------------------------------------|
E|---------------------------------------------------------------------------|
After 2nd time through intro 2nd guitar plays:
	Am  Em  Bm   C
e|-------0---0---3---3-------------------------------------------------------|
B|-------1---0---3---3-------------------------------------------------------|
G|-------0---0---0---0-------------------------------------------------------|
D|-------3---2---0---0-------------------------------------------------------|
A|-------0---2---2---3-------------------------------------------------------|
E|-------X---0---X---X-------------------------------------------------------|
Verse:
	Am  Em  Bm   C
e|-------0---0---3---3-------------------------------------------------------|
B|-------1---0---3---3-------------------------------------------------------|
G|-------0---0---0---0-------------------------------------------------------|
D|-------3---2---0---0-------------------------------------------------------|
A|-------0---2---2---3-------------------------------------------------------|
E|-------X---0---X---X-------------------------------------------------------|
Chorus: play this 3 times
	Asus7  G  Em  D  
e|--------3----3---0--2------------------------------------------------------|
B|--------3----3---0--3------------------------------------------------------|
G|--------2----0---0--2------------------------------------------------------|
D|--------2----0---2--0------------------------------------------------------|
A|--------0----2---2--X------------------------------------------------------|
E|--------X----3---0-X------------------------------------------------------|
Then this as the last line:
	Asus7  Em  D  C(add9)
e|--------3-----0--2-----3---------------------------------------------------|
B|--------3-----0--3-----3---------------------------------------------------|
G|--------2-----0--2-----0---------------------------------------------------|
D|--------2-----2--0-----2---------------------------------------------------|
A|--------0-----2--X-----3---------------------------------------------------|
E|--------X-----0--X-----X---------------------------------------------------|
Verse
Chorus
Bridge: 2 times
	Em  C Em  D  C
e|-------0--0--0--2-0-------------------------------------------------------|
B|-------0--1--0--3--1-------------------------------------------------------|
G|-------0--0--0--2--0-------------------------------------------------------|
D|-------2--2--2--0--2-------------------------------------------------------|
A|-------2--3--2--X--3-------------------------------------------------------|
E|-------0--0--0--X--0-------------------------------------------------------|
Verse
Chorus till end fade out with solo playing







Words:
Somewhere there's speaking
It's already coming in
Oh and it's rising at the back of your mind
You never could get it
Unless you were fed it
Now you're here and you don't know why 

But under skinned knees and the skid marks
Past the places where you used to learn
You howl and listen
Listen and wait for the
Echoes of angels who won't return

[Chorus]
He's everything you want
He's everything you need
He's everything inside of you
That you wish you could be
He says all the right things
At exactly the right time
But he means nothing to you
And you don't know why 

You're waiting for someone
To put you together
You're waiting for someone to push you away
There's always another wound to discover
There's always something more you wish he'd say 

[Chorus]

But you'll just sit tight
And watch it unwind
It's only what you're asking for
And you'll be just fine
With all of your time
It's only what you're waiting for 

Out of the island
Into the highway
Past the places where you might have turned
You never did notice
But you still hide away
The anger of angels who won't return 

[Chorus]
I am everything you want
I am everything you need
I am everything inside of you
That you wish you could be
I say all the right things
At exactly the right time
But I mean nothing to you and I don't know why
And I don't know why
Why
I don't know
Comments