Vertical Horizon - Everything You Want Chords & Tabs

 

Everything You Want Chords & Tabs

Vertical Horizon Chords & Tabs

Version: 4 Type: Tab 0 ratings
1 star 2 stars 3 stars 4 stars 5 stars
comments

Everything You Want Tab

   
Hey, this song is pretty easy to play. You should'nt have much trouble with the song, 
exept maybe the the strumming, but other than that it's easy. 

Tabbed by: Black_Guitar

Intro:(kind of repeats through out the song) 
e--------------------------------
B-2-4-4-2-4-4-2-4-2-4-4-2-4-11-10
g--------------------------------
D--------------------------------
A--------------------------------
E--------------------------------

e-2-4-4-2-4-4-2-4-2-4-4-2-4-0----
B----------------------------3---
G--------------------------------
D--------------------------------
A--------------------------------
E--------------------------------

e--------------------------------
B-2-4-4-2-4-4-2-4-2-4-4-2-4-0----
G---------------------------3----
D--------------------------------
A--------------------------------
E--------------------------------

Am  Em
Somewhere ther's speaking

Bm C
It's already comeing in

Am Em  Bm C
Oh and it's rising at the back of your mind

Am  Em
You never could get it

Bm   C
unless you were fed it

Am  Em  Bm C 
Now you're here and you don't know why

Am  Em
But under skinned knees and the skid marks

Bm   C
Past the places where you used to learn

Am  Em  Bm  C
You howl and listen

Am  Em
Listen and wait for

Bm   C
Echoes of angels who won't return

Chorus:

Am G
He's everything you want 

Bm C
He's everything you need
[ Tab from: http://www.guitartabs.cc/tabs/v/vertical_horizon/everything_you_want_tab_ver_4.html ]
Am C
He's everything inside of you 

D  C
that you you wish you could be

Am G
He says all the right words

Bm C
at exactly the right time

Am  G
but he means nothing to you 

D   C
and you don't know why

Am  G
Your waiting for someone

Bm  C
to put you together

Am  G
You're waiting for someone to push you away

Bm  C
There's always another wound to discover

D   C  
There's always more you wish hed say


Chorus:

Em  C
But you'll just tight

C
and wath it unwind

Em D C
It's only what you're asking for

Em C
and you'll be just fine

Em D C
It's only what your waiting for

Am  G
Out of the island


Bm  C
into the highway

Am  G
Past the places where you might have turned

Bm  C
you never did notice

Am  G
but you still hide away

D   C
The anger of angels who won't return

Am G
I  am evrything you want

Bm C
I  am everything you need

Am G
I  am everything inside of you

D  C
That you wish you could be

Am G
I  say all the right things

Bm C
at exactly the right time

Am G
but I mean nothing to you and I don't know why

D  C
and I don't know why

C
why

C
I don't know why

Enjoy!
Comments