Vertical Horizon - Everything You Want Chords & Tabs

 

Everything You Want Chords & Tabs

Vertical Horizon Chords & Tabs

Version: 3 Type: Tab 0 ratings
1 star 2 stars 3 stars 4 stars 5 stars
comments

Everything You Want Tab

this is the intro and it is played in the background of the whole song

fig.1
e-------------------------------------------
b-2-4-4-2-4-4-2-4-2-4-4-2-4-4-7-6-----------
g-------------------------------------------
d-------------------------------------------
a-------------------------------------------
e-------------------------------------------

[ Tab from: http://www.guitartabs.cc/tabs/v/vertical_horizon/everything_you_want_tab_ver_3.html ]
fig.2
e-------------------------------------------
b-2-4-4-2-4-4-2-4-2-4-4-2-4-4-0-------------
g-------------------------------3-----------
d-------------------------------------------
a-------------------------------------------
e-------------------------------------------

repeat fig.1

fig.3
e-------------------------------------------
b-2-4-4-2-4-4-2-4-2-4-4-2-4-4-0-------------
g-----------------------------3-------------
d-------------------------------------------
a-------------------------------------------
e-------------------------------------------
Comments