Vertical Horizon - Everything You Want Chords & Tabs

 

Everything You Want Chords & Tabs

Vertical Horizon Chords & Tabs

Version: 1 Type: Tab 0 ratings
1 star 2 stars 3 stars 4 stars 5 stars
comments

Everything You Want Tab

   
 Vertical Horizon - Everything You Want
     
   
tuning: down 1/2 step 


Intro
  Riff A (Gtr. 1 slight distortion)
 e-0--------0--------0----|-0--------0--------0--0-
 B-3--5--5--3--5--5--3--5-|-3--5--5--3--5--5--8--7-
 G------------------------|------------------------
 D------------------------|------------------------
 A------------------------|------------------------
 E------------------------|------------------------
                                         end Riff A
 e-0--------0--------0----|-0--------0--------0--0--
 B-3--5--5--3--5--5--3--5-|-3--5--5--3--5--5--1--0--
 G------------------------|-------------------------
 D------------------------|-------------------------
 A------------------------|-------------------------
 E------------------------|-------------------------

  Riff B Gtr. 2 acoustic (Gtr. 1 first half of Riff A)        end Riff B
 e--------------------0------0-0-|----------------0-------------0------0-
 B-1----1-------------0------0-0-|--------3----3--3-------------3------3-
 G-0----0-------------0------0-0-|--------0----0--0------0------0------0-
 D-0h2----------------2------2-2-|----------------2-------------2------2-
 A-------------0h2----2------2-2-|-2--------------3---------3---3------3-
 E--------------------0-0----0-0-|---------------------------------------

  Gtr. 2 (Gtr. 1 second half of Riff A)
 e-----------------------0------0------0-|----------------0-------------0-
 B-1------1----1---------0------0------0-|--------3----3--1-------------1-
 G-0------0----0---------0------0------0-|--------0----0--0------0------0-
 D-0h2-------------------2------2------2-|----------------2---------------
 A----------------0h2----2------2------2-|-2--------------3---------3-----
 E-----------------------0-0----0------0-|--------------------------------

Verse 1 
  Gtr. 1 Riff A 2 times
  Gtr. 2 Riff B 4 times

Verse 2
  Gtr. 1 Riff A 2 times
  Gtr. 2 Riff B 4 times

Chorus chord progression
  Gtr. 3 with distortion
   Am7  G5  Em7 Dsus4
 e--3---3----3----3-------
 B--1---3----3----3------- (listen to CD for timing and how 
 G--0---0----0----2------- many times each note is played)
 D--2---0----2----0-------   
 A--0---x----2------------
 E------3----0------------
[ Tab from: http://www.guitartabs.cc/tabs/v/vertical_horizon/everything_you_want_tab.html ]
 play progression three times, then play this:
  Riff C                                                 end Riff C
 e--0---0--0--0----0--------0--0--0--0--0----|--0------------------
 B--1---1--1--1p0--0--------0--0--0--0--0----|--3------------3-----
 G--0---0--0--0----0--------0--0--0--0--2----|--2------------0-----
 D--2---2--2--2----2--------2--2--2--2--2----|--0------------2-----
 A--0---0--0--0----2--------2--2--2--2--2----|---------------3-----
 E-----------------0--------0--0--0--0--0----|---------------------

Interlude
  Gtr. 1 with Riff A
  Gtr. 4: (clean electric) let ring throughout
  Riff D
 e-------------------------|------------------------
 B--------1----1----0------|-----3------------------
 G----------------------0--|--------0-------0---0---
 D--2--2-------------------|--4--------4------------
 A-------------------------|------------------------
 E-------------------------|------------------------
                                   end Riff D    
 e----------------------|--------------------
 B-----1----1---0-------|--------3-----------
 G-------------------0--|------0-------------
 D---2------------------|---4----------------
 A----------------------|--------------------
 E----------------------|--------------------

Verse 3
  Gtr. 1 with Riff A 2 times
  Gtr. 4 with Riff D 2 times

Chorus chord progression
  Gtr. 3
  Am7 G5 Em7 Dsus4 (again, listen to CD for the timing and number of notes)
  
  then Riff C once

Bridge chords (Gtr. 3)
   Em  C  Dsus2  Cadd9
 e--0--0----0------0-----
 B--0--1----3------3-----  (once again, listen to the CD)
 G--0--0----2------0-----
 D--2--2----0------2-----
 A--2--3-----------3-----
 E--0--------------------

Verse 4
  Gtr. 4 with Riff D 2 times
  Gtr. 1:
 e--------------------------|----------------------------
 B--3--5--------------------|--3--5----------------------
 G--------------------------|----------------------------
 D--------------------------|----------------------------
 A--------------------------|----------------------------
 E--------------------------|----------------------------
         Out of the island          Into the highway

 e---------------------------
 B--3--5---------------------
 G---------------------------
 D---------------------------
 A---------------------------
 E---------------------------
         Past the places....

 then Gtr. 1 plays Riff A once

Chorus chord progression & Riff C (Gtr. 3)

Outro
  Gtr. 1 with Riff A 3 times
  Gtr. 2 with Riff B 4 times
  Gtr. 4 with Riff D 2 times
  Gtr. 3 plays harmonics at the 17th fret on the 2nd and 3rd strings
          (just listen to the CD)
Comments