Vertical Horizon - Answer Me Chords & Tabs

 

Answer Me Chords & Tabs

Vertical Horizon Chords & Tabs

Version: 1 Type: Tab 0 ratings
1 star 2 stars 3 stars 4 stars 5 stars
comments

Answer Me Tab

   
Artist    : Vertical Horizon
Song      : Answer Me
Album     : Running On Ice
Tabbed By : Jo Lefebure (whipy@hotmail.com)

Tuning: 1/2 step down: Eb, Ab, Db, Gb, Bb, Eb

(1)
eb|------------------------|------------------------|-----------------------|-----------------------|
bb|------------------------|------------------------|-----------------------|-----------------------|
gb|-----5-4--------0-------|-----5-4--------0-------|-----5-4-------0-------|-----5-4-------0-------|
db|-------------(0)--------|-------------(0)--------|------------(0)--------|------------(0)--------|
ab|--0-------0h3-----------|--0-------0h3-----------|--0------0h3-----------|--0------0h3-----------|
eb|-------------------0-3--|-------------------0-3--|------------------0-3--|------------------0-3--|

eb|------------------------|------------------------|-----------------------|-----------------------|
bb|------------------------|------------------------|-----------------------|-----------------------|
gb|-----5-4--------0-------|-----5-4--------0-------|-----5-4-------0-------|-----5-4-------0-------|
db|-------------(0)--------|-------------(0)--------|------------(0)--------|------------(0)--------|
ab|--0-------0h3-----------|--0-------0h3-----------|--0------0h3-----------|--0------0h3-----------|
eb|-------------------0-3--|-------------------0-3--|------------------0-3--|------------------0-3--|


(2)
eb|------------------------|------------------------|-----------------------|-----------------------|
bb|------------------------|------------------------|-----------------------|-----------------------|
gb|-----2------------------|-----2------------------|-----5-4-------0-------|-----5-4-------0-------|
db|-------3----------------|-------3----------------|------------(0)--------|------------(0)--------|
ab|--------(3)-0h3-3-------|--------(3)-0h3-3-------|--0------0h3-----------|--0------0h3-----------|
eb|--1----------------0-3--|--1----------------0-3--|------------------0-3--|------------------0-3--|

eb|------------------------|------------------------|-----------------------|---------------3~~~~---|
bb|------------------------|------------------------|-----------------------|---------------3~~~~---|
gb|-----2------------------|-----2------------------|-----5-4-------0-------|-----5-4-------0~~~~---|
db|-------3----------------|-------3----------------|------------(0)--------|-----------------------|
ab|--------(3)-0h3-3-------|--------(3)-0h3-3-------|--0------0h3-----------|--0------0h3-----------|
eb|--1----------------0-3--|--1----------------0-3--|------------------0-3--|-----------------------|


(1)It seems you're feeling down
You don't know how long
(2)But you know you don't like it
Lost in your room
[ Tab from: http://www.guitartabs.cc/tabs/v/vertical_horizon/answer_me_tab.html ]
(1)It seems you're feeling tired
You don't know what from
(2)One too many parties
Makeup hides the wounds


Am       C         F         G
    Lada dada Lada dada Lada dada dada daa

Am       C         F         G
    Lada dada Lada dada Lada dada daa

A  Bm     G  G
Answer me
A      Bm       G       G
Giving up won't get you out
A         Bm       G  G
Can't you hear me
A        Bm         G           G
Come and leave this room of doubt

Answer (1)me

(1)It seems you're feeling scared
You don't know how come
(2)Hiding in the shadows
Praying for the sun


Am       C         F         G
    Lada dada Lada dada Lada dada dada daa

Am       C         F         G
    Lada dada Lada dada Lada dada daa

A  Bm     G  G
Answer me
A      Bm       G       G
Giving up won't get you out
A         Bm       G  G
Can't you hear me
A        Bm         G           G
Come and leave this room of doubt


Answer (1)me

(1)It seems you're feeling old
You don't know how long
(2)Holding on to memories
Waiting for the song


Am       C         F         G
    Lada dada Lada dada Lada dada dada daa

Am       C         F         G
    Lada dada Lada dada Lada dada daa

A  Bm     G  G
Answer me
A      Bm       G       G
Giving up won't get you out
A         Bm       G  G
Can't you hear me
A        Bm         G           G
Come and leave this room of doubt

Answer (1)me


Outro:
eb|--------------------------|------------------------|-----------------------|---------------3~~~~---|
bb|--1~~---------------------|------------------------|-----------------------|---------------3~~~~---|
gb|--2~~---5-4-------0-------|-----5-4--------0-------|-----5-4-------0-------|-----5-4-------0~~~~---|
db|--2~~----------(0)--------|-------------(0)--------|------------(0)--------|-----------------------|
ab|--0~~-------0h3-----------|--0-------0h3-----------|--0------0h3-----------|--0------0h3-----------|
eb|---------------------0-3--|-------------------0-3--|------------------0-3--|-----------------------|


Chords:
Am : x02210
C  : x32010
F  : 133211
G  : 320033
A  : x02220
Bm : x2443x
Comments