Verdena - Pixel Chords & Tabs

 

Pixel Chords & Tabs

Verdena Chords & Tabs

Version: 1 Type: Bass Tab 0 ratings
1 star 2 stars 3 stars 4 stars 5 stars
comments

Pixel Bass Tab

Verdena
PIXEL
[ Tab from: http://www.guitartabs.cc/tabs/v/verdena/pixel_btab.html ]
Intro+Strofe+Ritornello                             Prima volta     Seconda volta
Gb|------------------------------------------------|---------------|---------------
Db|------------------------------------------------|---------------|---------------
Ab|------------------------------------------------|--3-3-3-3-3-2-2|-3-3-3-3-3-5-5-  
Eb|-3-3-3-3-3-3-3-3-7-7-7-7-7-7-7-7/0-0-0-0-0-0-0-0|---------------|---------------                                            

Fine ritornello
Gb|--------------------------
Db|--------------------------
Ab|-----5--------5-----------      
Eb|-3-3---3-3-3----3-3-3-3-3-    

Ponte
Gb|-----------------------------------
Db|-----------------------------------
Ab|-----5-------5-------------------5-
Eb|-3-3----3-3----0-0-0-1-1-0-1-3-3---

/= slide
^= bend
x= armonica (queste note sfiorando solo le corde)

per suggerimenti o rimproveri scrivi a: gallottaluigi@tin.it 

Comments